ISO-10303-21;
HEADER;
/****************************************************************
 * Generated by software with PDE/Lib inside                    *
 * PDElib Version v51a, created Tue 12/06/2005                  *
 * International Technegroup Inc. (www.iti-oh.com)              *
 ****************************************************************/
FILE_DESCRIPTION((''),'2;1');
FILE_NAME('C:\\Documents and Settings\\JC.DESIGN\\Desktop\\Transfer File\\Web files from Annette\\updated web 3d\\prc-0.5.stp','2013-06-28T12:54:10',('JC'),(''),'Autodesk Inventor 11','Autodesk Inventor 11','');
FILE_SCHEMA(('AUTOMOTIVE_DESIGN { 1 0 10303 214 1 1 1 1 }'));
ENDSEC;
DATA;
#5=APPLICATION_CONTEXT('automotive design');
#6=APPLICATION_PROTOCOL_DEFINITION('Draft International Standard','automotive_design',1998,#5);
#7=PRODUCT_CONTEXT('None',#5,'mechanical');
#8=PRODUCT('prc-0.51','prc-0.51','None',(#7));
#9=PRODUCT_RELATED_PRODUCT_CATEGORY('part','description',(#8));
#10=PRODUCT_DEFINITION_FORMATION('None','None',#8);
#11=PRODUCT_DEFINITION_CONTEXT('part definition',#5,'design');
#12=PRODUCT_DEFINITION('None','None',#10,#11);
#18=(NAMED_UNIT(*)PLANE_ANGLE_UNIT()SI_UNIT($,.RADIAN.));
#19=DIMENSIONAL_EXPONENTS(0.0,0.0,0.0,0.0,0.0,0.0,0.0);
#20=PLANE_ANGLE_MEASURE_WITH_UNIT(PLANE_ANGLE_MEASURE(0.017453292500000),#18);
#24=(CONVERSION_BASED_UNIT('DEGREE',#20)NAMED_UNIT(#19)PLANE_ANGLE_UNIT());
#28=(NAMED_UNIT(*)SI_UNIT($,.STERADIAN.)SOLID_ANGLE_UNIT());
#32=(LENGTH_UNIT()NAMED_UNIT(*)SI_UNIT(.CENTI.,.METRE.));
#33=DIMENSIONAL_EXPONENTS(1.0,0.0,0.0,0.0,0.0,0.0,0.0);
#34=LENGTH_MEASURE_WITH_UNIT(LENGTH_MEASURE(2.540000000000000),#32);
#38=(CONVERSION_BASED_UNIT('INCH',#34)LENGTH_UNIT()NAMED_UNIT(#33));
#40=UNCERTAINTY_MEASURE_WITH_UNIT(LENGTH_MEASURE(0.000393700787402),#38,'DISTANCE_ACCURACY_VALUE','');
#42=(GEOMETRIC_REPRESENTATION_CONTEXT(3)GLOBAL_UNCERTAINTY_ASSIGNED_CONTEXT((#40))GLOBAL_UNIT_ASSIGNED_CONTEXT((#24,#28,#38))REPRESENTATION_CONTEXT('None','None'));
#43=AXIS2_PLACEMENT_3D('',#44,#45,#46);
#44=CARTESIAN_POINT('',(0.0,0.0,0.0));
#45=DIRECTION('',(0.0,0.0,1.0));
#46=DIRECTION('',(1.0,0.0,0.0));
#47=SHAPE_REPRESENTATION('',(#43),#42);
#48=PRODUCT_DEFINITION_SHAPE('','',#12);
#49=SHAPE_DEFINITION_REPRESENTATION(#48,#47);
#50=CARTESIAN_POINT('',(0.0,0.0,0.500000000000000));
#51=DIRECTION('',(0.0,0.0,-1.0));
#52=DIRECTION('',(1.0,0.0,0.0));
#53=AXIS2_PLACEMENT_3D('',#50,#51,#52);
#54=CYLINDRICAL_SURFACE('',#53,0.251000000000000);
#55=CARTESIAN_POINT('',(0.250999999999999,1.776357E-015,0.483500000000000));
#56=VERTEX_POINT('',#55);
#57=CARTESIAN_POINT('',(0.0,0.0,0.483500000000000));
#58=DIRECTION('',(0.0,0.0,-1.0));
#59=DIRECTION('',(-1.0,0.0,0.0));
#60=AXIS2_PLACEMENT_3D('',#57,#58,#59);
#61=CIRCLE('',#60,0.251000000000000);
#62=EDGE_CURVE('',#56,#56,#61,.T.);
#63=ORIENTED_EDGE('',*,*,#62,.F.);
#64=EDGE_LOOP('',(#63));
#65=FACE_OUTER_BOUND('',#64,.T.);
#66=CARTESIAN_POINT('',(-0.250999999999999,1.776357E-015,0.016500000000000));
#67=VERTEX_POINT('',#66);
#68=CARTESIAN_POINT('',(0.0,0.0,0.016500000000000));
#69=DIRECTION('',(0.0,0.0,1.0));
#70=DIRECTION('',(1.0,0.0,0.0));
#71=AXIS2_PLACEMENT_3D('',#68,#69,#70);
#72=CIRCLE('',#71,0.251000000000000);
#73=EDGE_CURVE('',#67,#67,#72,.T.);
#74=ORIENTED_EDGE('',*,*,#73,.F.);
#75=EDGE_LOOP('',(#74));
#76=FACE_BOUND('',#75,.T.);
#77=ADVANCED_FACE('',(#65,#76),#54,.F.);
#78=CARTESIAN_POINT('',(0.0,0.0,0.008250000000000));
#79=DIRECTION('',(0.0,0.0,-1.0));
#80=DIRECTION('',(1.0,0.0,0.0));
#81=AXIS2_PLACEMENT_3D('',#78,#79,#80);
#82=CONICAL_SURFACE('',#81,0.259250000000000,45.000000000001158);
#83=ORIENTED_EDGE('',*,*,#73,.T.);
#84=EDGE_LOOP('',(#83));
#85=FACE_OUTER_BOUND('',#84,.T.);
#86=CARTESIAN_POINT('',(-0.267500000000000,1.776357E-015,0.0));
#87=VERTEX_POINT('',#86);
#88=CARTESIAN_POINT('',(0.0,0.0,0.0));
#89=DIRECTION('',(0.0,0.0,-1.0));
#90=DIRECTION('',(1.0,0.0,0.0));
#91=AXIS2_PLACEMENT_3D('',#88,#89,#90);
#92=CIRCLE('',#91,0.267500000000001);
#93=EDGE_CURVE('',#87,#87,#92,.T.);
#94=ORIENTED_EDGE('',*,*,#93,.T.);
#95=EDGE_LOOP('',(#94));
#96=FACE_BOUND('',#95,.T.);
#97=ADVANCED_FACE('',(#85,#96),#82,.F.);
#98=CARTESIAN_POINT('',(0.375000000000000,0.0,0.0));
#99=DIRECTION('',(0.0,0.0,1.0));
#100=DIRECTION('',(1.0,0.0,0.0));
#101=AXIS2_PLACEMENT_3D('',#98,#99,#100);
#102=PLANE('',#101);
#103=CARTESIAN_POINT('',(0.355000000000000,-2.664535E-015,0.0));
#104=VERTEX_POINT('',#103);
#105=CARTESIAN_POINT('',(0.0,0.0,0.0));
#106=DIRECTION('',(0.0,0.0,1.0));
#107=DIRECTION('',(-1.0,0.0,0.0));
#108=AXIS2_PLACEMENT_3D('',#105,#106,#107);
#109=CIRCLE('',#108,0.355000000000000);
#110=EDGE_CURVE('',#104,#104,#109,.T.);
#111=ORIENTED_EDGE('',*,*,#110,.F.);
#112=EDGE_LOOP('',(#111));
#113=FACE_OUTER_BOUND('',#112,.T.);
#114=ORIENTED_EDGE('',*,*,#93,.F.);
#115=EDGE_LOOP('',(#114));
#116=FACE_BOUND('',#115,.T.);
#117=ADVANCED_FACE('',(#113,#116),#102,.F.);
#118=CARTESIAN_POINT('',(0.0,0.0,0.491750000000000));
#119=DIRECTION('',(0.0,0.0,1.0));
#120=DIRECTION('',(-1.0,0.0,0.0));
#121=AXIS2_PLACEMENT_3D('',#118,#119,#120);
#122=CONICAL_SURFACE('',#121,0.259250000000000,45.000000000001066);
#123=ORIENTED_EDGE('',*,*,#62,.T.);
#124=EDGE_LOOP('',(#123));
#125=FACE_OUTER_BOUND('',#124,.T.);
#126=CARTESIAN_POINT('',(0.267500000000000,1.776357E-015,0.500000000000000));
#127=VERTEX_POINT('',#126);
#128=CARTESIAN_POINT('',(0.0,0.0,0.500000000000000));
#129=DIRECTION('',(0.0,0.0,1.0));
#130=DIRECTION('',(-1.0,0.0,0.0));
#131=AXIS2_PLACEMENT_3D('',#128,#129,#130);
#132=CIRCLE('',#131,0.267500000000001);
#133=EDGE_CURVE('',#127,#127,#132,.T.);
#134=ORIENTED_EDGE('',*,*,#133,.T.);
#135=EDGE_LOOP('',(#134));
#136=FACE_BOUND('',#135,.T.);
#137=ADVANCED_FACE('',(#125,#136),#122,.F.);
#138=CARTESIAN_POINT('',(1.776357E-015,-8.881784E-016,0.500000000000000));
#139=DIRECTION('',(0.0,0.0,1.0));
#140=DIRECTION('',(1.0,0.0,0.0));
#141=AXIS2_PLACEMENT_3D('',#138,#139,#140);
#142=PLANE('',#141);
#143=CARTESIAN_POINT('',(0.355000000000000,-2.664535E-015,0.500000000000000));
#144=VERTEX_POINT('',#143);
#145=CARTESIAN_POINT('',(0.0,0.0,0.500000000000000));
#146=DIRECTION('',(0.0,0.0,-1.0));
#147=DIRECTION('',(-1.0,0.0,0.0));
#148=AXIS2_PLACEMENT_3D('',#145,#146,#147);
#149=CIRCLE('',#148,0.355000000000000);
#150=EDGE_CURVE('',#144,#144,#149,.T.);
#151=ORIENTED_EDGE('',*,*,#150,.F.);
#152=EDGE_LOOP('',(#151));
#153=FACE_OUTER_BOUND('',#152,.T.);
#154=ORIENTED_EDGE('',*,*,#133,.F.);
#155=EDGE_LOOP('',(#154));
#156=FACE_BOUND('',#155,.T.);
#157=ADVANCED_FACE('',(#153,#156),#142,.T.);
#158=CARTESIAN_POINT('',(0.0,0.0,0.010000000000000));
#159=DIRECTION('',(0.0,0.0,1.0));
#160=DIRECTION('',(-1.0,0.0,0.0));
#161=AXIS2_PLACEMENT_3D('',#158,#159,#160);
#162=CONICAL_SURFACE('',#161,0.365000000000000,44.999999999999368);
#163=ORIENTED_EDGE('',*,*,#110,.T.);
#164=EDGE_LOOP('',(#163));
#165=FACE_OUTER_BOUND('',#164,.T.);
#166=CARTESIAN_POINT('',(0.375000000000000,-2.664535E-015,0.020000000000000));
#167=VERTEX_POINT('',#166);
#168=CARTESIAN_POINT('',(0.0,0.0,0.020000000000000));
#169=DIRECTION('',(0.0,0.0,-1.0));
#170=DIRECTION('',(-1.0,0.0,0.0));
#171=AXIS2_PLACEMENT_3D('',#168,#169,#170);
#172=CIRCLE('',#171,0.375000000000000);
#173=EDGE_CURVE('',#167,#167,#172,.T.);
#174=ORIENTED_EDGE('',*,*,#173,.T.);
#175=EDGE_LOOP('',(#174));
#176=FACE_BOUND('',#175,.T.);
#177=ADVANCED_FACE('',(#165,#176),#162,.T.);
#178=CARTESIAN_POINT('',(0.0,0.0,0.490000000000000));
#179=DIRECTION('',(0.0,0.0,-1.0));
#180=DIRECTION('',(-1.0,0.0,0.0));
#181=AXIS2_PLACEMENT_3D('',#178,#179,#180);
#182=CONICAL_SURFACE('',#181,0.365000000000000,44.999999999999403);
#183=CARTESIAN_POINT('',(0.375000000000000,-2.664535E-015,0.480000000000000));
#184=VERTEX_POINT('',#183);
#185=CARTESIAN_POINT('',(0.0,0.0,0.480000000000000));
#186=DIRECTION('',(0.0,0.0,1.0));
#187=DIRECTION('',(-1.0,0.0,0.0));
#188=AXIS2_PLACEMENT_3D('',#185,#186,#187);
#189=CIRCLE('',#188,0.375000000000000);
#190=EDGE_CURVE('',#184,#184,#189,.T.);
#191=ORIENTED_EDGE('',*,*,#190,.T.);
#192=EDGE_LOOP('',(#191));
#193=FACE_OUTER_BOUND('',#192,.T.);
#194=ORIENTED_EDGE('',*,*,#150,.T.);
#195=EDGE_LOOP('',(#194));
#196=FACE_BOUND('',#195,.T.);
#197=ADVANCED_FACE('',(#193,#196),#182,.T.);
#198=CARTESIAN_POINT('',(0.0,0.465892940046377,0.250000000000000));
#199=DIRECTION('',(0.0,-1.0,6.123032E-017));
#200=DIRECTION('',(1.0,0.0,0.0));
#201=AXIS2_PLACEMENT_3D('',#198,#199,#200);
#202=CYLINDRICAL_SURFACE('',#201,0.125000000000000);
#203=CARTESIAN_POINT('',(-0.048173033365794,0.371892940046377,0.365344522437514));
#204=VERTEX_POINT('',#203);
#205=CARTESIAN_POINT('',(-0.048173033365794,0.371892940046377,0.134655477562486));
#206=VERTEX_POINT('',#205);
#207=CARTESIAN_POINT('',(-0.048173033365794,0.371892940046377,0.365344522437514));
#208=CARTESIAN_POINT('',(-0.063488370239578,0.369909072769582,0.358948152513412));
#209=CARTESIAN_POINT('',(-0.077401210146837,0.367099265689113,0.349375485149800));
#210=CARTESIAN_POINT('',(-0.099421309999964,0.361758607007873,0.327355385296673));
#211=CARTESIAN_POINT('',(-0.109019113453294,0.358866301595291,0.313381647494712));
#212=CARTESIAN_POINT('',(-0.121811292408602,0.354728347858907,0.282625246682940));
#213=CARTESIAN_POINT('',(-0.125000000000000,0.353553390593274,0.265830757550987));
#214=CARTESIAN_POINT('',(-0.125000000000000,0.353553390593274,0.234169242449013));
#215=CARTESIAN_POINT('',(-0.121811292408601,0.354728347858907,0.217374753317059));
#216=CARTESIAN_POINT('',(-0.109019113453293,0.358866301595291,0.186618352505287));
#217=CARTESIAN_POINT('',(-0.099421309999962,0.361758607007873,0.172644614703325));
#218=CARTESIAN_POINT('',(-0.077401210146835,0.367099265689114,0.150624514850199));
#219=CARTESIAN_POINT('',(-0.063488370239577,0.369909072769582,0.141051847486588));
#220=CARTESIAN_POINT('',(-0.048173033365794,0.371892940046377,0.134655477562486));
#221=B_SPLINE_CURVE_WITH_KNOTS('',3,(#207,#208,#209,#210,#211,#212,#213,#214,#215,#216,#217,#218,#219,#220),.UNSPECIFIED.,.F.,.U.,(4,2,2,2,2,2,4),(0.237570512202343,0.284865528106950,0.332357800759910,0.379850073412870,0.427342346065832,0.474834618718794,0.522129634623398),.UNSPECIFIED.);
#222=EDGE_CURVE('',#204,#206,#221,.T.);
#223=ORIENTED_EDGE('',*,*,#222,.F.);
#224=CARTESIAN_POINT('',(0.0,0.371892940046377,0.250000000000000));
#225=DIRECTION('',(0.0,-1.0,0.0));
#226=DIRECTION('',(1.0,0.0,0.0));
#227=AXIS2_PLACEMENT_3D('',#224,#225,#226);
#228=CIRCLE('',#227,0.125000000000000);
#229=EDGE_CURVE('',#204,#206,#228,.T.);
#230=ORIENTED_EDGE('',*,*,#229,.T.);
#231=EDGE_LOOP('',(#223,#230));
#232=FACE_OUTER_BOUND('',#231,.T.);
#233=ADVANCED_FACE('',(#232),#202,.T.);
#234=CARTESIAN_POINT('',(0.0,0.465892940046377,0.250000000000000));
#235=DIRECTION('',(0.0,-1.0,6.123032E-017));
#236=DIRECTION('',(1.0,0.0,0.0));
#237=AXIS2_PLACEMENT_3D('',#234,#235,#236);
#238=CYLINDRICAL_SURFACE('',#237,0.125000000000000);
#239=CARTESIAN_POINT('',(0.048173033365794,0.371892940046377,0.134655477562486));
#240=VERTEX_POINT('',#239);
#241=CARTESIAN_POINT('',(0.048173033365794,0.371892940046377,0.365344522437514));
#242=VERTEX_POINT('',#241);
#243=CARTESIAN_POINT('',(0.048173033365794,0.371892940046377,0.134655477562486));
#244=CARTESIAN_POINT('',(0.063488370239578,0.369909072769582,0.141051847486588));
#245=CARTESIAN_POINT('',(0.077401210146838,0.367099265689113,0.150624514850200));
#246=CARTESIAN_POINT('',(0.099421309999964,0.361758607007873,0.172644614703327));
#247=CARTESIAN_POINT('',(0.109019113453295,0.358866301595291,0.186618352505289));
#248=CARTESIAN_POINT('',(0.121811292408602,0.354728347858907,0.217374753317060));
#249=CARTESIAN_POINT('',(0.125000000000000,0.353553390593274,0.234169242449013));
#250=CARTESIAN_POINT('',(0.125000000000000,0.353553390593274,0.250000000000000));
#251=CARTESIAN_POINT('',(0.125000000000000,0.353553390593274,0.265830757550987));
#252=CARTESIAN_POINT('',(0.121811292408602,0.354728347858907,0.282625246682941));
#253=CARTESIAN_POINT('',(0.109019113453294,0.358866301595291,0.313381647494713));
#254=CARTESIAN_POINT('',(0.099421309999963,0.361758607007873,0.327355385296674));
#255=CARTESIAN_POINT('',(0.077401210146836,0.367099265689113,0.349375485149801));
#256=CARTESIAN_POINT('',(0.063488370239578,0.369909072769582,0.358948152513412));
#257=CARTESIAN_POINT('',(0.048173033365794,0.371892940046377,0.365344522437514));
#258=B_SPLINE_CURVE_WITH_KNOTS('',3,(#243,#244,#245,#246,#247,#248,#249,#250,#251,#252,#253,#254,#255,#256,#257),.UNSPECIFIED.,.F.,.U.,(4,2,2,3,2,2,4),(-0.142279561210528,-0.094984545305920,-0.047492272652960,0.0,0.047492272652961,0.094984545305922,0.142279561210528),.UNSPECIFIED.);
#259=EDGE_CURVE('',#240,#242,#258,.T.);
#260=ORIENTED_EDGE('',*,*,#259,.F.);
#261=CARTESIAN_POINT('',(0.0,0.371892940046377,0.250000000000000));
#262=DIRECTION('',(0.0,-1.0,0.0));
#263=DIRECTION('',(1.0,0.0,0.0));
#264=AXIS2_PLACEMENT_3D('',#261,#262,#263);
#265=CIRCLE('',#264,0.125000000000000);
#266=EDGE_CURVE('',#240,#242,#265,.T.);
#267=ORIENTED_EDGE('',*,*,#266,.T.);
#268=EDGE_LOOP('',(#260,#267));
#269=FACE_OUTER_BOUND('',#268,.T.);
#270=ADVANCED_FACE('',(#269),#238,.T.);
#271=CARTESIAN_POINT('',(0.0,0.695892940046377,0.250000000000000));
#272=DIRECTION('',(0.0,1.0,-6.123032E-017));
#273=DIRECTION('',(-1.0,0.0,0.0));
#274=AXIS2_PLACEMENT_3D('',#271,#272,#273);
#275=TOROIDAL_SURFACE('',#274,0.210000000000000,0.020000000000000);
#276=CARTESIAN_POINT('',(0.230000000000000,0.695892940046377,0.250000000000002));
#277=VERTEX_POINT('',#276);
#278=CARTESIAN_POINT('',(0.0,0.695892940046377,0.250000000000000));
#279=DIRECTION('',(0.0,1.0,0.0));
#280=DIRECTION('',(-1.0,0.0,0.0));
#281=AXIS2_PLACEMENT_3D('',#278,#279,#280);
#282=CIRCLE('',#281,0.230000000000000);
#283=EDGE_CURVE('',#277,#277,#282,.T.);
#284=ORIENTED_EDGE('',*,*,#283,.T.);
#285=EDGE_LOOP('',(#284));
#286=FACE_OUTER_BOUND('',#285,.T.);
#287=CARTESIAN_POINT('',(0.210000000000000,0.715892940046377,0.250000000000001));
#288=VERTEX_POINT('',#287);
#289=CARTESIAN_POINT('',(0.0,0.715892940046377,0.250000000000000));
#290=DIRECTION('',(0.0,-1.0,0.0));
#291=DIRECTION('',(-1.0,0.0,0.0));
#292=AXIS2_PLACEMENT_3D('',#289,#290,#291);
#293=CIRCLE('',#292,0.210000000000000);
#294=EDGE_CURVE('',#288,#288,#293,.T.);
#295=ORIENTED_EDGE('',*,*,#294,.T.);
#296=EDGE_LOOP('',(#295));
#297=FACE_BOUND('',#296,.T.);
#298=ADVANCED_FACE('',(#286,#297),#275,.T.);
#299=CARTESIAN_POINT('',(0.0,0.559392940046377,0.250000000000000));
#300=DIRECTION('',(0.0,-1.0,6.123032E-017));
#301=DIRECTION('',(1.0,0.0,0.0));
#302=AXIS2_PLACEMENT_3D('',#299,#300,#301);
#303=CYLINDRICAL_SURFACE('',#302,0.230000000000000);
#304=CARTESIAN_POINT('',(-0.230000000000000,0.651892940046377,0.249999999999998));
#305=VERTEX_POINT('',#304);
#306=CARTESIAN_POINT('',(0.0,0.651892940046377,0.250000000000000));
#307=DIRECTION('',(0.0,1.0,0.0));
#308=DIRECTION('',(1.0,0.0,0.0));
#309=AXIS2_PLACEMENT_3D('',#306,#307,#308);
#310=CIRCLE('',#309,0.230000000000000);
#311=EDGE_CURVE('',#305,#305,#310,.T.);
#312=ORIENTED_EDGE('',*,*,#311,.T.);
#313=EDGE_LOOP('',(#312));
#314=FACE_OUTER_BOUND('',#313,.T.);
#315=ORIENTED_EDGE('',*,*,#283,.F.);
#316=EDGE_LOOP('',(#315));
#317=FACE_BOUND('',#316,.T.);
#318=ADVANCED_FACE('',(#314,#317),#303,.T.);
#319=CARTESIAN_POINT('',(0.0,0.715892940046377,0.250000000000000));
#320=DIRECTION('',(0.0,1.0,0.0));
#321=DIRECTION('',(-1.0,0.0,0.0));
#322=AXIS2_PLACEMENT_3D('',#319,#320,#321);
#323=PLANE('',#322);
#324=ORIENTED_EDGE('',*,*,#294,.F.);
#325=EDGE_LOOP('',(#324));
#326=FACE_OUTER_BOUND('',#325,.T.);
#327=ADVANCED_FACE('',(#326),#323,.T.);
#328=CARTESIAN_POINT('',(0.0,0.422892940046377,0.250000000000000));
#329=DIRECTION('',(0.0,-1.0,6.123032E-017));
#330=DIRECTION('',(1.0,0.0,0.0));
#331=AXIS2_PLACEMENT_3D('',#328,#329,#330);
#332=TOROIDAL_SURFACE('',#331,0.210000000000000,0.020000000000000);
#333=CARTESIAN_POINT('',(0.230000000000000,0.422892940046377,0.249999999999998));
#334=VERTEX_POINT('',#333);
#335=CARTESIAN_POINT('',(0.0,0.422892940046377,0.250000000000000));
#336=DIRECTION('',(0.0,-1.0,0.0));
#337=DIRECTION('',(-1.0,0.0,0.0));
#338=AXIS2_PLACEMENT_3D('',#335,#336,#337);
#339=CIRCLE('',#338,0.230000000000000);
#340=EDGE_CURVE('',#334,#334,#339,.T.);
#341=ORIENTED_EDGE('',*,*,#340,.T.);
#342=EDGE_LOOP('',(#341));
#343=FACE_OUTER_BOUND('',#342,.T.);
#344=CARTESIAN_POINT('',(0.210000000000000,0.402892940046377,0.249999999999999));
#345=VERTEX_POINT('',#344);
#346=CARTESIAN_POINT('',(0.0,0.402892940046377,0.250000000000000));
#347=DIRECTION('',(0.0,1.0,0.0));
#348=DIRECTION('',(-1.0,0.0,0.0));
#349=AXIS2_PLACEMENT_3D('',#346,#347,#348);
#350=CIRCLE('',#349,0.210000000000000);
#351=EDGE_CURVE('',#345,#345,#350,.T.);
#352=ORIENTED_EDGE('',*,*,#351,.T.);
#353=EDGE_LOOP('',(#352));
#354=FACE_BOUND('',#353,.T.);
#355=ADVANCED_FACE('',(#343,#354),#332,.T.);
#356=CARTESIAN_POINT('',(0.0,0.559392940046377,0.250000000000000));
#357=DIRECTION('',(0.0,-1.0,6.123032E-017));
#358=DIRECTION('',(1.0,0.0,0.0));
#359=AXIS2_PLACEMENT_3D('',#356,#357,#358);
#360=CYLINDRICAL_SURFACE('',#359,0.230000000000000);
#361=CARTESIAN_POINT('',(-0.230000000000000,0.466892940046377,0.250000000000002));
#362=VERTEX_POINT('',#361);
#363=CARTESIAN_POINT('',(0.0,0.466892940046377,0.250000000000000));
#364=DIRECTION('',(0.0,-1.0,0.0));
#365=DIRECTION('',(1.0,0.0,0.0));
#366=AXIS2_PLACEMENT_3D('',#363,#364,#365);
#367=CIRCLE('',#366,0.230000000000000);
#368=EDGE_CURVE('',#362,#362,#367,.T.);
#369=ORIENTED_EDGE('',*,*,#368,.T.);
#370=EDGE_LOOP('',(#369));
#371=FACE_OUTER_BOUND('',#370,.T.);
#372=ORIENTED_EDGE('',*,*,#340,.F.);
#373=EDGE_LOOP('',(#372));
#374=FACE_BOUND('',#373,.T.);
#375=ADVANCED_FACE('',(#371,#374),#360,.T.);
#376=CARTESIAN_POINT('',(0.0,0.402892940046377,0.250000000000000));
#377=DIRECTION('',(0.0,-1.0,0.0));
#378=DIRECTION('',(1.0,0.0,0.0));
#379=AXIS2_PLACEMENT_3D('',#376,#377,#378);
#380=PLANE('',#379);
#381=ORIENTED_EDGE('',*,*,#351,.F.);
#382=EDGE_LOOP('',(#381));
#383=FACE_OUTER_BOUND('',#382,.T.);
#384=CARTESIAN_POINT('',(0.156000000000000,0.402892940046377,0.250000000000000));
#385=VERTEX_POINT('',#384);
#386=CARTESIAN_POINT('',(0.0,0.402892940046377,0.250000000000000));
#387=DIRECTION('',(0.0,1.0,0.0));
#388=DIRECTION('',(1.0,0.0,0.0));
#389=AXIS2_PLACEMENT_3D('',#386,#387,#388);
#390=CIRCLE('',#389,0.156000000000000);
#391=EDGE_CURVE('',#385,#385,#390,.T.);
#392=ORIENTED_EDGE('',*,*,#391,.T.);
#393=EDGE_LOOP('',(#392));
#394=FACE_BOUND('',#393,.T.);
#395=ADVANCED_FACE('',(#383,#394),#380,.T.);
#396=CARTESIAN_POINT('',(0.0,0.651892940046377,0.250000000000000));
#397=DIRECTION('',(0.0,1.0,0.0));
#398=DIRECTION('',(-1.0,0.0,0.0));
#399=AXIS2_PLACEMENT_3D('',#396,#397,#398);
#400=PLANE('',#399);
#401=CARTESIAN_POINT('',(0.250000000000000,0.651892940046377,0.250000000000000));
#402=VERTEX_POINT('',#401);
#403=CARTESIAN_POINT('',(0.0,0.651892940046377,0.250000000000000));
#404=DIRECTION('',(0.0,1.0,0.0));
#405=DIRECTION('',(1.0,0.0,0.0));
#406=AXIS2_PLACEMENT_3D('',#403,#404,#405);
#407=CIRCLE('',#406,0.250000000000000);
#408=EDGE_CURVE('',#402,#402,#407,.T.);
#409=ORIENTED_EDGE('',*,*,#408,.T.);
#410=EDGE_LOOP('',(#409));
#411=FACE_OUTER_BOUND('',#410,.T.);
#412=ORIENTED_EDGE('',*,*,#311,.F.);
#413=EDGE_LOOP('',(#412));
#414=FACE_BOUND('',#413,.T.);
#415=ADVANCED_FACE('',(#411,#414),#400,.T.);
#416=CARTESIAN_POINT('',(0.0,0.466892940046377,0.250000000000000));
#417=DIRECTION('',(0.0,-1.0,0.0));
#418=DIRECTION('',(1.0,0.0,0.0));
#419=AXIS2_PLACEMENT_3D('',#416,#417,#418);
#420=PLANE('',#419);
#421=CARTESIAN_POINT('',(0.250000000000000,0.466892940046377,0.250000000000000));
#422=VERTEX_POINT('',#421);
#423=CARTESIAN_POINT('',(0.0,0.466892940046377,0.250000000000000));
#424=DIRECTION('',(0.0,-1.0,0.0));
#425=DIRECTION('',(1.0,0.0,0.0));
#426=AXIS2_PLACEMENT_3D('',#423,#424,#425);
#427=CIRCLE('',#426,0.250000000000000);
#428=EDGE_CURVE('',#422,#422,#427,.T.);
#429=ORIENTED_EDGE('',*,*,#428,.T.);
#430=EDGE_LOOP('',(#429));
#431=FACE_OUTER_BOUND('',#430,.T.);
#432=ORIENTED_EDGE('',*,*,#368,.F.);
#433=EDGE_LOOP('',(#432));
#434=FACE_BOUND('',#433,.T.);
#435=ADVANCED_FACE('',(#431,#434),#420,.T.);
#436=CARTESIAN_POINT('',(0.0,0.559392940046377,0.250000000000000));
#437=DIRECTION('',(0.0,-1.0,6.123032E-017));
#438=DIRECTION('',(1.0,0.0,0.0));
#439=AXIS2_PLACEMENT_3D('',#436,#437,#438);
#440=CYLINDRICAL_SURFACE('',#439,0.250000000000000);
#441=ORIENTED_EDGE('',*,*,#408,.F.);
#442=EDGE_LOOP('',(#441));
#443=FACE_OUTER_BOUND('',#442,.T.);
#444=ORIENTED_EDGE('',*,*,#428,.F.);
#445=EDGE_LOOP('',(#444));
#446=FACE_BOUND('',#445,.T.);
#447=ADVANCED_FACE('',(#443,#446),#440,.T.);
#448=CARTESIAN_POINT('',(0.0,0.324892940046377,0.250000000000000));
#449=DIRECTION('',(0.0,1.0,-6.123032E-017));
#450=DIRECTION('',(1.0,0.0,0.0));
#451=AXIS2_PLACEMENT_3D('',#448,#449,#450);
#452=CONICAL_SURFACE('',#451,0.078000000000000,45.000000000000007);
#453=CARTESIAN_POINT('',(0.048173033365794,0.371892940046377,0.365344522437514));
#454=CARTESIAN_POINT('',(0.047325564109182,0.372002716706214,0.365817429569141));
#455=CARTESIAN_POINT('',(0.046471696802714,0.372110375839358,0.366278620504281));
#456=CARTESIAN_POINT('',(0.031382277516315,0.373959455533991,0.374160106050770));
#457=CARTESIAN_POINT('',(0.015396409529404,0.375000000000000,0.378107059953623));
#458=CARTESIAN_POINT('',(-0.015396409529408,0.375000000000000,0.378107059953623));
#459=CARTESIAN_POINT('',(-0.031382277516318,0.373959455533991,0.374160106050769));
#460=CARTESIAN_POINT('',(-0.046471696802716,0.372110375839358,0.366278620504280));
#461=CARTESIAN_POINT('',(-0.047325564109183,0.372002716706214,0.365817429569141));
#462=CARTESIAN_POINT('',(-0.048173033365794,0.371892940046377,0.365344522437514));
#463=B_SPLINE_CURVE_WITH_KNOTS('',3,(#453,#454,#455,#456,#457,#458,#459,#460,#461,#462),.UNSPECIFIED.,.F.,.U.,(4,2,2,2,4),(0.495963753569567,0.498754920777561,0.544944149365779,0.591133377953998,0.593924545161988),.UNSPECIFIED.);
#464=EDGE_CURVE('',#242,#204,#463,.T.);
#465=ORIENTED_EDGE('',*,*,#464,.F.);
#466=ORIENTED_EDGE('',*,*,#266,.F.);
#467=CARTESIAN_POINT('',(-0.048173033365794,0.371892940046377,0.134655477562486));
#468=CARTESIAN_POINT('',(-0.047801058492946,0.371941123692882,0.134447907118151));
#469=CARTESIAN_POINT('',(-0.047427869601495,0.371988897066597,0.134242603895510));
#470=CARTESIAN_POINT('',(-0.032465516021143,0.373881271496200,0.126129063231147));
#471=CARTESIAN_POINT('',(-0.015965280493813,0.375000000000000,0.121892940046377));
#472=CARTESIAN_POINT('',(0.015965280493815,0.375000000000000,0.121892940046377));
#473=CARTESIAN_POINT('',(0.032465516021145,0.373881271496199,0.126129063231148));
#474=CARTESIAN_POINT('',(0.047427869601496,0.371988897066596,0.134242603895511));
#475=CARTESIAN_POINT('',(0.047801058492947,0.371941123692882,0.134447907118151));
#476=CARTESIAN_POINT('',(0.048173033365794,0.371892940046377,0.134655477562486));
#477=B_SPLINE_CURVE_WITH_KNOTS('',3,(#467,#468,#469,#470,#471,#472,#473,#474,#475,#476),.UNSPECIFIED.,.F.,.U.,(4,2,2,2,4),(0.132560069344091,0.133789221886648,0.181685063368091,0.229580904849534,0.230810057392089),.UNSPECIFIED.);
#478=EDGE_CURVE('',#206,#240,#477,.T.);
#479=ORIENTED_EDGE('',*,*,#478,.F.);
#480=ORIENTED_EDGE('',*,*,#229,.F.);
#481=EDGE_LOOP('',(#465,#466,#479,#480));
#482=FACE_OUTER_BOUND('',#481,.T.);
#483=ORIENTED_EDGE('',*,*,#391,.F.);
#484=EDGE_LOOP('',(#483));
#485=FACE_BOUND('',#484,.T.);
#486=ADVANCED_FACE('',(#482,#485),#452,.T.);
#487=CARTESIAN_POINT('',(0.0,0.0,0.036500000000000));
#488=DIRECTION('',(0.0,0.0,1.0));
#489=DIRECTION('',(1.0,0.0,0.0));
#490=AXIS2_PLACEMENT_3D('',#487,#488,#489);
#491=CYLINDRICAL_SURFACE('',#490,0.375000000000000);
#492=ORIENTED_EDGE('',*,*,#173,.F.);
#493=EDGE_LOOP('',(#492));
#494=FACE_OUTER_BOUND('',#493,.T.);
#495=ORIENTED_EDGE('',*,*,#190,.F.);
#496=EDGE_LOOP('',(#495));
#497=FACE_BOUND('',#496,.T.);
#498=ORIENTED_EDGE('',*,*,#478,.T.);
#499=ORIENTED_EDGE('',*,*,#259,.T.);
#500=ORIENTED_EDGE('',*,*,#464,.T.);
#501=ORIENTED_EDGE('',*,*,#222,.T.);
#502=EDGE_LOOP('',(#498,#499,#500,#501));
#503=FACE_BOUND('',#502,.T.);
#504=ADVANCED_FACE('',(#494,#497,#503),#491,.T.);
#505=CLOSED_SHELL('',(#77,#97,#117,#137,#157,#177,#197,#233,#270,#298,#318,#327,#355,#375,#395,#415,#435,#447,#486,#504));
#506=MANIFOLD_SOLID_BREP('',#505);
#507=COLOUR_RGB('Default',0.752941012382507,0.752941012382507,0.752941012382507);
#508=FILL_AREA_STYLE_COLOUR('Default',#507);
#509=FILL_AREA_STYLE('Default',(#508));
#510=SURFACE_STYLE_FILL_AREA(#509);
#511=SURFACE_SIDE_STYLE('Default',(#510));
#512=SURFACE_STYLE_USAGE(.BOTH.,#511);
#513=PRESENTATION_STYLE_ASSIGNMENT((#512));
#514=STYLED_ITEM('',(#513),#506);
#515=MECHANICAL_DESIGN_GEOMETRIC_PRESENTATION_REPRESENTATION('',(#514),#42);
#516=ADVANCED_BREP_SHAPE_REPRESENTATION('ABSR',(#506),#42);
#517=SHAPE_REPRESENTATION_RELATIONSHIP('SRR','None',#516,#47);
ENDSEC;
END-ISO-10303-21;
