ISO-10303-21;
HEADER;
/****************************************************************
 * Generated by software with PDE/Lib inside                    *
 * PDElib Version v51a, created Tue 12/06/2005                  *
 * International Technegroup Inc. (www.iti-oh.com)              *
 ****************************************************************/
FILE_DESCRIPTION((''),'2;1');
FILE_NAME('C:\\Documents and Settings\\JC.DESIGN\\Desktop\\Transfer File\\Web files from Annette\\updated web 3d\\flg-sma-2.stp','2013-03-25T09:53:49',('JC'),(''),'Autodesk Inventor 11','Autodesk Inventor 11','');
FILE_SCHEMA(('AUTOMOTIVE_DESIGN { 1 0 10303 214 1 1 1 1 }'));
ENDSEC;
DATA;
#5=APPLICATION_CONTEXT('automotive design');
#6=APPLICATION_PROTOCOL_DEFINITION('Draft International Standard','automotive_design',1998,#5);
#7=PRODUCT_CONTEXT('None',#5,'mechanical');
#8=PRODUCT('flg-sma-21','flg-sma-21','None',(#7));
#9=PRODUCT_RELATED_PRODUCT_CATEGORY('part','description',(#8));
#10=PRODUCT_DEFINITION_FORMATION('None','None',#8);
#11=PRODUCT_DEFINITION_CONTEXT('part definition',#5,'design');
#12=PRODUCT_DEFINITION('None','None',#10,#11);
#18=(NAMED_UNIT(*)PLANE_ANGLE_UNIT()SI_UNIT($,.RADIAN.));
#19=DIMENSIONAL_EXPONENTS(0.0,0.0,0.0,0.0,0.0,0.0,0.0);
#20=PLANE_ANGLE_MEASURE_WITH_UNIT(PLANE_ANGLE_MEASURE(0.017453292500000),#18);
#24=(CONVERSION_BASED_UNIT('DEGREE',#20)NAMED_UNIT(#19)PLANE_ANGLE_UNIT());
#28=(NAMED_UNIT(*)SI_UNIT($,.STERADIAN.)SOLID_ANGLE_UNIT());
#32=(LENGTH_UNIT()NAMED_UNIT(*)SI_UNIT(.CENTI.,.METRE.));
#33=DIMENSIONAL_EXPONENTS(1.0,0.0,0.0,0.0,0.0,0.0,0.0);
#34=LENGTH_MEASURE_WITH_UNIT(LENGTH_MEASURE(2.540000000000000),#32);
#38=(CONVERSION_BASED_UNIT('INCH',#34)LENGTH_UNIT()NAMED_UNIT(#33));
#40=UNCERTAINTY_MEASURE_WITH_UNIT(LENGTH_MEASURE(0.000393700787402),#38,'DISTANCE_ACCURACY_VALUE','');
#42=(GEOMETRIC_REPRESENTATION_CONTEXT(3)GLOBAL_UNCERTAINTY_ASSIGNED_CONTEXT((#40))GLOBAL_UNIT_ASSIGNED_CONTEXT((#24,#28,#38))REPRESENTATION_CONTEXT('None','None'));
#43=AXIS2_PLACEMENT_3D('',#44,#45,#46);
#44=CARTESIAN_POINT('',(0.0,0.0,0.0));
#45=DIRECTION('',(0.0,0.0,1.0));
#46=DIRECTION('',(1.0,0.0,0.0));
#47=SHAPE_REPRESENTATION('',(#43),#42);
#48=PRODUCT_DEFINITION_SHAPE('','',#12);
#49=SHAPE_DEFINITION_REPRESENTATION(#48,#47);
#50=CARTESIAN_POINT('',(0.382500000000000,0.0,0.0));
#51=DIRECTION('',(1.0,0.0,0.0));
#52=DIRECTION('',(0.0,1.0,0.0));
#53=AXIS2_PLACEMENT_3D('',#50,#51,#52);
#54=CYLINDRICAL_SURFACE('',#53,0.062750000000000);
#55=CARTESIAN_POINT('',(0.0,0.062750000000000,0.0));
#56=VERTEX_POINT('',#55);
#57=CARTESIAN_POINT('',(0.0,0.0,0.0));
#58=DIRECTION('',(1.0,0.0,0.0));
#59=DIRECTION('',(0.0,1.0,0.0));
#60=AXIS2_PLACEMENT_3D('',#57,#58,#59);
#61=CIRCLE('',#60,0.062750000000000);
#62=EDGE_CURVE('',#56,#56,#61,.T.);
#63=ORIENTED_EDGE('',*,*,#62,.F.);
#64=EDGE_LOOP('',(#63));
#65=FACE_OUTER_BOUND('',#64,.T.);
#66=CARTESIAN_POINT('',(0.025000000000000,0.062750000000000,0.0));
#67=VERTEX_POINT('',#66);
#68=CARTESIAN_POINT('',(0.025000000000000,0.0,0.0));
#69=DIRECTION('',(1.0,0.0,0.0));
#70=DIRECTION('',(0.0,1.0,0.0));
#71=AXIS2_PLACEMENT_3D('',#68,#69,#70);
#72=CIRCLE('',#71,0.062750000000000);
#73=EDGE_CURVE('',#67,#67,#72,.T.);
#74=ORIENTED_EDGE('',*,*,#73,.T.);
#75=EDGE_LOOP('',(#74));
#76=FACE_BOUND('',#75,.T.);
#77=ADVANCED_FACE('',(#65,#76),#54,.F.);
#78=CARTESIAN_POINT('',(0.0,0.0,0.0));
#79=DIRECTION('',(-1.0,0.0,0.0));
#80=DIRECTION('',(0.0,-1.0,0.0));
#81=AXIS2_PLACEMENT_3D('',#78,#79,#80);
#82=PLANE('',#81);
#83=CARTESIAN_POINT('',(0.0,-0.108000000000001,-8.881784E-016));
#84=VERTEX_POINT('',#83);
#85=CARTESIAN_POINT('',(0.0,0.0,0.0));
#86=DIRECTION('',(1.0,0.0,0.0));
#87=DIRECTION('',(0.0,1.0,0.0));
#88=AXIS2_PLACEMENT_3D('',#85,#86,#87);
#89=CIRCLE('',#88,0.108000000000000);
#90=EDGE_CURVE('',#84,#84,#89,.T.);
#91=ORIENTED_EDGE('',*,*,#90,.F.);
#92=EDGE_LOOP('',(#91));
#93=FACE_OUTER_BOUND('',#92,.T.);
#94=ORIENTED_EDGE('',*,*,#62,.T.);
#95=EDGE_LOOP('',(#94));
#96=FACE_BOUND('',#95,.T.);
#97=ADVANCED_FACE('',(#93,#96),#82,.T.);
#98=CARTESIAN_POINT('',(0.186000000000000,0.0,1.776357E-015));
#99=DIRECTION('',(1.0,0.0,0.0));
#100=DIRECTION('',(0.0,0.0,-1.0));
#101=AXIS2_PLACEMENT_3D('',#98,#99,#100);
#102=PLANE('',#101);
#103=CARTESIAN_POINT('',(0.186000000000000,0.0,-0.180000000000001));
#104=VERTEX_POINT('',#103);
#105=CARTESIAN_POINT('',(0.186000000000000,0.0,0.0));
#106=DIRECTION('',(1.0,0.0,0.0));
#107=DIRECTION('',(0.0,0.0,1.0));
#108=AXIS2_PLACEMENT_3D('',#105,#106,#107);
#109=CIRCLE('',#108,0.180000000000002);
#110=EDGE_CURVE('',#104,#104,#109,.T.);
#111=ORIENTED_EDGE('',*,*,#110,.F.);
#112=EDGE_LOOP('',(#111));
#113=FACE_OUTER_BOUND('',#112,.T.);
#114=CARTESIAN_POINT('',(0.186000000000000,-0.107500000000000,0.0));
#115=VERTEX_POINT('',#114);
#116=CARTESIAN_POINT('',(0.186000000000000,0.0,0.0));
#117=DIRECTION('',(1.0,0.0,0.0));
#118=DIRECTION('',(0.0,-1.0,0.0));
#119=AXIS2_PLACEMENT_3D('',#116,#117,#118);
#120=CIRCLE('',#119,0.107500000000000);
#121=EDGE_CURVE('',#115,#115,#120,.T.);
#122=ORIENTED_EDGE('',*,*,#121,.T.);
#123=EDGE_LOOP('',(#122));
#124=FACE_BOUND('',#123,.T.);
#125=ADVANCED_FACE('',(#113,#124),#102,.F.);
#126=CARTESIAN_POINT('',(0.189749999999997,0.0,0.0));
#127=DIRECTION('',(1.0,-4.898425E-016,0.0));
#128=DIRECTION('',(0.0,0.0,1.0));
#129=AXIS2_PLACEMENT_3D('',#126,#127,#128);
#130=CONICAL_SURFACE('',#129,0.183750000000001,44.999999999992994);
#131=CARTESIAN_POINT('',(0.193500000000000,0.0,-0.187500000000000));
#132=VERTEX_POINT('',#131);
#133=CARTESIAN_POINT('',(0.193500000000000,0.0,0.0));
#134=DIRECTION('',(-1.0,0.0,0.0));
#135=DIRECTION('',(0.0,0.0,1.0));
#136=AXIS2_PLACEMENT_3D('',#133,#134,#135);
#137=CIRCLE('',#136,0.187500000000000);
#138=EDGE_CURVE('',#132,#132,#137,.T.);
#139=ORIENTED_EDGE('',*,*,#138,.T.);
#140=EDGE_LOOP('',(#139));
#141=FACE_OUTER_BOUND('',#140,.T.);
#142=ORIENTED_EDGE('',*,*,#110,.T.);
#143=EDGE_LOOP('',(#142));
#144=FACE_BOUND('',#143,.T.);
#145=ADVANCED_FACE('',(#141,#144),#130,.T.);
#146=CARTESIAN_POINT('',(0.155999999999999,0.0,0.0));
#147=DIRECTION('',(-1.0,1.224606E-016,0.0));
#148=DIRECTION('',(0.0,-1.0,0.0));
#149=AXIS2_PLACEMENT_3D('',#146,#147,#148);
#150=CYLINDRICAL_SURFACE('',#149,0.107500000000000);
#151=ORIENTED_EDGE('',*,*,#121,.F.);
#152=EDGE_LOOP('',(#151));
#153=FACE_OUTER_BOUND('',#152,.T.);
#154=CARTESIAN_POINT('',(0.125999999999998,-0.107500000000000,0.0));
#155=VERTEX_POINT('',#154);
#156=CARTESIAN_POINT('',(0.125999999999998,0.0,0.0));
#157=DIRECTION('',(-1.0,0.0,0.0));
#158=DIRECTION('',(0.0,-1.0,0.0));
#159=AXIS2_PLACEMENT_3D('',#156,#157,#158);
#160=CIRCLE('',#159,0.107500000000000);
#161=EDGE_CURVE('',#155,#155,#160,.T.);
#162=ORIENTED_EDGE('',*,*,#161,.F.);
#163=EDGE_LOOP('',(#162));
#164=FACE_BOUND('',#163,.T.);
#165=ADVANCED_FACE('',(#153,#164),#150,.T.);
#166=CARTESIAN_POINT('',(0.118499999999997,0.0,0.0));
#167=DIRECTION('',(-1.0,1.224606E-016,0.0));
#168=DIRECTION('',(0.0,1.0,0.0));
#169=AXIS2_PLACEMENT_3D('',#166,#167,#168);
#170=CONICAL_SURFACE('',#169,0.115500000000000,45.000000000000007);
#171=CARTESIAN_POINT('',(0.110999999999997,-0.123000000000001,8.881784E-016));
#172=VERTEX_POINT('',#171);
#173=CARTESIAN_POINT('',(0.110999999999997,0.0,0.0));
#174=DIRECTION('',(1.0,0.0,0.0));
#175=DIRECTION('',(0.0,1.0,0.0));
#176=AXIS2_PLACEMENT_3D('',#173,#174,#175);
#177=CIRCLE('',#176,0.123000000000000);
#178=EDGE_CURVE('',#172,#172,#177,.T.);
#179=ORIENTED_EDGE('',*,*,#178,.T.);
#180=EDGE_LOOP('',(#179));
#181=FACE_OUTER_BOUND('',#180,.T.);
#182=CARTESIAN_POINT('',(0.125999999999998,-0.108000000000001,8.881784E-016));
#183=VERTEX_POINT('',#182);
#184=CARTESIAN_POINT('',(0.125999999999998,0.0,0.0));
#185=DIRECTION('',(-1.0,0.0,0.0));
#186=DIRECTION('',(0.0,1.0,0.0));
#187=AXIS2_PLACEMENT_3D('',#184,#185,#186);
#188=CIRCLE('',#187,0.108000000000000);
#189=EDGE_CURVE('',#183,#183,#188,.T.);
#190=ORIENTED_EDGE('',*,*,#189,.T.);
#191=EDGE_LOOP('',(#190));
#192=FACE_BOUND('',#191,.T.);
#193=ADVANCED_FACE('',(#181,#192),#170,.T.);
#194=CARTESIAN_POINT('',(0.063000000000002,0.0,0.0));
#195=DIRECTION('',(-1.0,1.224606E-016,0.0));
#196=DIRECTION('',(0.0,-1.0,0.0));
#197=AXIS2_PLACEMENT_3D('',#194,#195,#196);
#198=CYLINDRICAL_SURFACE('',#197,0.123000000000000);
#199=ORIENTED_EDGE('',*,*,#178,.F.);
#200=EDGE_LOOP('',(#199));
#201=FACE_OUTER_BOUND('',#200,.T.);
#202=CARTESIAN_POINT('',(0.015000000000001,-0.123000000000001,-8.881784E-016));
#203=VERTEX_POINT('',#202);
#204=CARTESIAN_POINT('',(0.015000000000001,0.0,0.0));
#205=DIRECTION('',(-1.0,0.0,0.0));
#206=DIRECTION('',(0.0,1.0,0.0));
#207=AXIS2_PLACEMENT_3D('',#204,#205,#206);
#208=CIRCLE('',#207,0.123000000000000);
#209=EDGE_CURVE('',#203,#203,#208,.T.);
#210=ORIENTED_EDGE('',*,*,#209,.F.);
#211=EDGE_LOOP('',(#210));
#212=FACE_BOUND('',#211,.T.);
#213=ADVANCED_FACE('',(#201,#212),#198,.T.);
#214=CARTESIAN_POINT('',(0.007500000000000,0.0,0.0));
#215=DIRECTION('',(1.0,-1.224606E-016,0.0));
#216=DIRECTION('',(0.0,1.0,0.0));
#217=AXIS2_PLACEMENT_3D('',#214,#215,#216);
#218=CONICAL_SURFACE('',#217,0.115500000000000,45.000000000000007);
#219=ORIENTED_EDGE('',*,*,#209,.T.);
#220=EDGE_LOOP('',(#219));
#221=FACE_OUTER_BOUND('',#220,.T.);
#222=ORIENTED_EDGE('',*,*,#90,.T.);
#223=EDGE_LOOP('',(#222));
#224=FACE_BOUND('',#223,.T.);
#225=ADVANCED_FACE('',(#221,#224),#218,.T.);
#226=CARTESIAN_POINT('',(0.125999999999998,0.0,0.0));
#227=DIRECTION('',(1.0,0.0,0.0));
#228=DIRECTION('',(0.0,1.0,0.0));
#229=AXIS2_PLACEMENT_3D('',#226,#227,#228);
#230=PLANE('',#229);
#231=ORIENTED_EDGE('',*,*,#189,.F.);
#232=EDGE_LOOP('',(#231));
#233=FACE_OUTER_BOUND('',#232,.T.);
#234=ORIENTED_EDGE('',*,*,#161,.T.);
#235=EDGE_LOOP('',(#234));
#236=FACE_BOUND('',#235,.T.);
#237=ADVANCED_FACE('',(#233,#236),#230,.T.);
#238=CARTESIAN_POINT('',(0.025000000000000,8.557969E-017,-1.457168E-016));
#239=DIRECTION('',(1.0,0.0,0.0));
#240=DIRECTION('',(0.0,0.0,-1.0));
#241=AXIS2_PLACEMENT_3D('',#238,#239,#240);
#242=PLANE('',#241);
#243=ORIENTED_EDGE('',*,*,#73,.F.);
#244=EDGE_LOOP('',(#243));
#245=FACE_OUTER_BOUND('',#244,.T.);
#246=ADVANCED_FACE('',(#245),#242,.F.);
#247=CARTESIAN_POINT('',(3.016712000000000,0.0,0.0));
#248=DIRECTION('',(1.0,0.0,0.0));
#249=DIRECTION('',(0.0,1.0,0.0));
#250=AXIS2_PLACEMENT_3D('',#247,#248,#249);
#251=CYLINDRICAL_SURFACE('',#250,0.112500000000000);
#252=CARTESIAN_POINT('',(1.333211999999997,-0.112500000000000,-7.855838E-016));
#253=VERTEX_POINT('',#252);
#254=CARTESIAN_POINT('',(1.333211999999997,0.0,0.0));
#255=DIRECTION('',(-1.0,0.0,0.0));
#256=DIRECTION('',(0.0,1.0,0.0));
#257=AXIS2_PLACEMENT_3D('',#254,#255,#256);
#258=CIRCLE('',#257,0.112500000000000);
#259=EDGE_CURVE('',#253,#253,#258,.T.);
#260=ORIENTED_EDGE('',*,*,#259,.F.);
#261=EDGE_LOOP('',(#260));
#262=FACE_OUTER_BOUND('',#261,.T.);
#263=CARTESIAN_POINT('',(1.313211999999997,0.112500000000000,0.0));
#264=VERTEX_POINT('',#263);
#265=CARTESIAN_POINT('',(1.313211999999997,0.0,0.0));
#266=DIRECTION('',(-1.0,0.0,0.0));
#267=DIRECTION('',(0.0,1.0,0.0));
#268=AXIS2_PLACEMENT_3D('',#265,#266,#267);
#269=CIRCLE('',#268,0.112500000000000);
#270=EDGE_CURVE('',#264,#264,#269,.T.);
#271=ORIENTED_EDGE('',*,*,#270,.T.);
#272=EDGE_LOOP('',(#271));
#273=FACE_BOUND('',#272,.T.);
#274=ADVANCED_FACE('',(#262,#273),#251,.F.);
#275=CARTESIAN_POINT('',(1.195712000000001,0.0,1.776357E-015));
#276=DIRECTION('',(-1.0,-4.898425E-016,1.224606E-016));
#277=DIRECTION('',(0.0,1.0,0.0));
#278=AXIS2_PLACEMENT_3D('',#275,#276,#277);
#279=CYLINDRICAL_SURFACE('',#278,0.140000000000000);
#280=CARTESIAN_POINT('',(1.220712000000000,0.140000000000001,1.776357E-015));
#281=VERTEX_POINT('',#280);
#282=CARTESIAN_POINT('',(1.220712000000000,0.0,1.776357E-015));
#283=DIRECTION('',(1.0,0.0,0.0));
#284=DIRECTION('',(0.0,1.0,0.0));
#285=AXIS2_PLACEMENT_3D('',#282,#283,#284);
#286=CIRCLE('',#285,0.140000000000000);
#287=EDGE_CURVE('',#281,#281,#286,.T.);
#288=ORIENTED_EDGE('',*,*,#287,.F.);
#289=EDGE_LOOP('',(#288));
#290=FACE_OUTER_BOUND('',#289,.T.);
#291=CARTESIAN_POINT('',(1.211500000000002,-0.140000000000000,7.968081E-016));
#292=VERTEX_POINT('',#291);
#293=CARTESIAN_POINT('',(1.211500000000002,7.733634E-018,1.774423E-015));
#294=DIRECTION('',(-1.0,0.0,0.0));
#295=DIRECTION('',(0.0,1.0,0.0));
#296=AXIS2_PLACEMENT_3D('',#293,#294,#295);
#297=CIRCLE('',#296,0.140000000000000);
#298=EDGE_CURVE('',#292,#292,#297,.T.);
#299=ORIENTED_EDGE('',*,*,#298,.F.);
#300=EDGE_LOOP('',(#299));
#301=FACE_BOUND('',#300,.T.);
#302=ADVANCED_FACE('',(#290,#301),#279,.T.);
#303=CARTESIAN_POINT('',(1.220712000000000,0.0,3.552714E-015));
#304=DIRECTION('',(1.0,0.0,0.0));
#305=DIRECTION('',(0.0,-1.0,0.0));
#306=AXIS2_PLACEMENT_3D('',#303,#304,#305);
#307=PLANE('',#306);
#308=CARTESIAN_POINT('',(1.220712000000000,-0.187500000000000,1.776357E-015));
#309=VERTEX_POINT('',#308);
#310=CARTESIAN_POINT('',(1.220712000000000,0.0,3.552714E-015));
#311=DIRECTION('',(-1.0,0.0,0.0));
#312=DIRECTION('',(0.0,1.0,0.0));
#313=AXIS2_PLACEMENT_3D('',#310,#311,#312);
#314=CIRCLE('',#313,0.187500000000000);
#315=EDGE_CURVE('',#309,#309,#314,.T.);
#316=ORIENTED_EDGE('',*,*,#315,.T.);
#317=EDGE_LOOP('',(#316));
#318=FACE_OUTER_BOUND('',#317,.T.);
#319=ORIENTED_EDGE('',*,*,#287,.T.);
#320=EDGE_LOOP('',(#319));
#321=FACE_BOUND('',#320,.T.);
#322=ADVANCED_FACE('',(#318,#321),#307,.F.);
#323=CARTESIAN_POINT('',(3.759211999999999,0.0,-1.776357E-015));
#324=DIRECTION('',(1.0,0.0,0.0));
#325=DIRECTION('',(0.0,1.0,0.0));
#326=AXIS2_PLACEMENT_3D('',#323,#324,#325);
#327=CYLINDRICAL_SURFACE('',#326,0.187500000000000);
#328=ORIENTED_EDGE('',*,*,#315,.F.);
#329=EDGE_LOOP('',(#328));
#330=FACE_OUTER_BOUND('',#329,.T.);
#331=CARTESIAN_POINT('',(1.360712000000001,-0.187500000000000,-4.670506E-016));
#332=VERTEX_POINT('',#331);
#333=CARTESIAN_POINT('',(1.360712000000001,0.0,-1.776357E-015));
#334=DIRECTION('',(1.0,0.0,0.0));
#335=DIRECTION('',(0.0,1.0,0.0));
#336=AXIS2_PLACEMENT_3D('',#333,#334,#335);
#337=CIRCLE('',#336,0.187500000000000);
#338=EDGE_CURVE('',#332,#332,#337,.T.);
#339=ORIENTED_EDGE('',*,*,#338,.F.);
#340=EDGE_LOOP('',(#339));
#341=FACE_BOUND('',#340,.T.);
#342=ADVANCED_FACE('',(#330,#341),#327,.T.);
#343=CARTESIAN_POINT('',(1.365711999999996,0.0,-1.776357E-015));
#344=DIRECTION('',(-1.0,0.0,0.0));
#345=DIRECTION('',(0.0,1.0,0.0));
#346=AXIS2_PLACEMENT_3D('',#343,#344,#345);
#347=CONICAL_SURFACE('',#346,0.182500000000000,45.000000000005727);
#348=ORIENTED_EDGE('',*,*,#338,.T.);
#349=EDGE_LOOP('',(#348));
#350=FACE_OUTER_BOUND('',#349,.T.);
#351=CARTESIAN_POINT('',(1.370711999999999,-0.177500000000000,-5.368802E-016));
#352=VERTEX_POINT('',#351);
#353=CARTESIAN_POINT('',(1.370711999999999,0.0,-1.776357E-015));
#354=DIRECTION('',(-1.0,0.0,0.0));
#355=DIRECTION('',(0.0,1.0,0.0));
#356=AXIS2_PLACEMENT_3D('',#353,#354,#355);
#357=CIRCLE('',#356,0.177500000000000);
#358=EDGE_CURVE('',#352,#352,#357,.T.);
#359=ORIENTED_EDGE('',*,*,#358,.T.);
#360=EDGE_LOOP('',(#359));
#361=FACE_BOUND('',#360,.T.);
#362=ADVANCED_FACE('',(#350,#361),#347,.T.);
#363=CARTESIAN_POINT('',(1.370711999999999,0.0,8.881784E-016));
#364=DIRECTION('',(-1.0,0.0,0.0));
#365=DIRECTION('',(0.0,-1.0,0.0));
#366=AXIS2_PLACEMENT_3D('',#363,#364,#365);
#367=PLANE('',#366);
#368=ORIENTED_EDGE('',*,*,#358,.F.);
#369=EDGE_LOOP('',(#368));
#370=FACE_OUTER_BOUND('',#369,.T.);
#371=CARTESIAN_POINT('',(1.370711999999999,-0.150000000000000,-1.047445E-015));
#372=VERTEX_POINT('',#371);
#373=CARTESIAN_POINT('',(1.370711999999999,0.0,0.0));
#374=DIRECTION('',(1.0,0.0,0.0));
#375=DIRECTION('',(0.0,1.0,0.0));
#376=AXIS2_PLACEMENT_3D('',#373,#374,#375);
#377=CIRCLE('',#376,0.150000000000000);
#378=EDGE_CURVE('',#372,#372,#377,.T.);
#379=ORIENTED_EDGE('',*,*,#378,.F.);
#380=EDGE_LOOP('',(#379));
#381=FACE_BOUND('',#380,.T.);
#382=ADVANCED_FACE('',(#370,#381),#367,.F.);
#383=CARTESIAN_POINT('',(1.351962000000002,0.0,0.0));
#384=DIRECTION('',(1.0,0.0,0.0));
#385=DIRECTION('',(0.0,1.0,0.0));
#386=AXIS2_PLACEMENT_3D('',#383,#384,#385);
#387=CONICAL_SURFACE('',#386,0.131250000000000,44.999999999998970);
#388=ORIENTED_EDGE('',*,*,#259,.T.);
#389=EDGE_LOOP('',(#388));
#390=FACE_OUTER_BOUND('',#389,.T.);
#391=ORIENTED_EDGE('',*,*,#378,.T.);
#392=EDGE_LOOP('',(#391));
#393=FACE_BOUND('',#392,.T.);
#394=ADVANCED_FACE('',(#390,#393),#387,.F.);
#395=CARTESIAN_POINT('',(1.211500000000002,0.164000000000000,1.776357E-015));
#396=DIRECTION('',(1.0,0.0,0.0));
#397=DIRECTION('',(0.0,0.0,-1.0));
#398=AXIS2_PLACEMENT_3D('',#395,#396,#397);
#399=PLANE('',#398);
#400=CARTESIAN_POINT('',(1.211500000000002,8.881784E-016,0.187500000000002));
#401=VERTEX_POINT('',#400);
#402=CARTESIAN_POINT('',(1.211500000000002,0.0,1.776357E-015));
#403=DIRECTION('',(1.0,0.0,0.0));
#404=DIRECTION('',(0.0,0.0,-1.0));
#405=AXIS2_PLACEMENT_3D('',#402,#403,#404);
#406=CIRCLE('',#405,0.187500000000000);
#407=EDGE_CURVE('',#401,#401,#406,.T.);
#408=ORIENTED_EDGE('',*,*,#407,.T.);
#409=EDGE_LOOP('',(#408));
#410=FACE_OUTER_BOUND('',#409,.T.);
#411=ORIENTED_EDGE('',*,*,#298,.T.);
#412=EDGE_LOOP('',(#411));
#413=FACE_BOUND('',#412,.T.);
#414=ADVANCED_FACE('',(#410,#413),#399,.T.);
#415=CARTESIAN_POINT('',(1.313211999999997,0.112500000000000,0.0));
#416=DIRECTION('',(1.0,0.0,0.0));
#417=DIRECTION('',(0.0,0.0,-1.0));
#418=AXIS2_PLACEMENT_3D('',#415,#416,#417);
#419=PLANE('',#418);
#420=ORIENTED_EDGE('',*,*,#270,.F.);
#421=EDGE_LOOP('',(#420));
#422=FACE_OUTER_BOUND('',#421,.T.);
#423=ADVANCED_FACE('',(#422),#419,.T.);
#424=CARTESIAN_POINT('',(0.864212400000000,3.046087E-018,1.829273E-015));
#425=DIRECTION('',(1.0,0.0,0.0));
#426=DIRECTION('',(0.0,1.0,0.0));
#427=AXIS2_PLACEMENT_3D('',#424,#425,#426);
#428=CYLINDRICAL_SURFACE('',#427,0.187500000000000);
#429=ORIENTED_EDGE('',*,*,#138,.F.);
#430=EDGE_LOOP('',(#429));
#431=FACE_OUTER_BOUND('',#430,.T.);
#432=ORIENTED_EDGE('',*,*,#407,.F.);
#433=EDGE_LOOP('',(#432));
#434=FACE_BOUND('',#433,.T.);
#435=ADVANCED_FACE('',(#431,#434),#428,.T.);
#436=CLOSED_SHELL('',(#77,#97,#125,#145,#165,#193,#213,#225,#237,#246,#274,#302,#322,#342,#362,#382,#394,#414,#423,#435));
#437=CARTESIAN_POINT('',(0.960712400000000,0.187500000000000,1.829273E-015));
#438=DIRECTION('',(1.0,0.0,0.0));
#439=DIRECTION('',(0.0,0.0,-1.0));
#440=AXIS2_PLACEMENT_3D('',#437,#438,#439);
#441=PLANE('',#440);
#442=CARTESIAN_POINT('',(0.960712000000002,0.112500000000000,1.776357E-015));
#443=VERTEX_POINT('',#442);
#444=CARTESIAN_POINT('',(0.960712399999999,0.0,0.0));
#445=DIRECTION('',(1.0,0.0,0.0));
#446=DIRECTION('',(0.0,1.0,0.0));
#447=AXIS2_PLACEMENT_3D('',#444,#445,#446);
#448=CIRCLE('',#447,0.112500000000000);
#449=EDGE_CURVE('',#443,#443,#448,.T.);
#450=ORIENTED_EDGE('',*,*,#449,.T.);
#451=EDGE_LOOP('',(#450));
#452=FACE_OUTER_BOUND('',#451,.T.);
#453=CARTESIAN_POINT('',(0.960712400000000,-0.110236000000000,1.776357E-015));
#454=VERTEX_POINT('',#453);
#455=CARTESIAN_POINT('',(0.960712400000000,0.0,1.776357E-015));
#456=DIRECTION('',(-1.0,0.0,0.0));
#457=DIRECTION('',(0.0,0.0,1.0));
#458=AXIS2_PLACEMENT_3D('',#455,#456,#457);
#459=CIRCLE('',#458,0.110235999999999);
#460=EDGE_CURVE('',#454,#454,#459,.T.);
#461=ORIENTED_EDGE('',*,*,#460,.T.);
#462=EDGE_LOOP('',(#461));
#463=FACE_BOUND('',#462,.T.);
#464=ADVANCED_FACE('',(#452,#463),#441,.T.);
#465=CARTESIAN_POINT('',(0.648639533333332,0.0,1.776357E-015));
#466=DIRECTION('',(0.0,-1.0,0.0));
#467=DIRECTION('',(-1.0,0.0,0.0));
#468=AXIS2_PLACEMENT_3D('',#465,#466,#467);
#469=SPHERICAL_SURFACE('',#468,0.330970466666668);
#470=ORIENTED_EDGE('',*,*,#460,.F.);
#471=EDGE_LOOP('',(#470));
#472=FACE_OUTER_BOUND('',#471,.T.);
#473=ADVANCED_FACE('',(#472),#469,.T.);
#474=CARTESIAN_POINT('',(3.016712000000000,0.0,0.0));
#475=DIRECTION('',(1.0,0.0,0.0));
#476=DIRECTION('',(0.0,1.0,0.0));
#477=AXIS2_PLACEMENT_3D('',#474,#475,#476);
#478=CYLINDRICAL_SURFACE('',#477,0.112500000000000);
#479=ORIENTED_EDGE('',*,*,#449,.F.);
#480=EDGE_LOOP('',(#479));
#481=FACE_OUTER_BOUND('',#480,.T.);
#482=CARTESIAN_POINT('',(0.983817562599648,-0.112500000000000,-7.855838E-016));
#483=VERTEX_POINT('',#482);
#484=CARTESIAN_POINT('',(0.983817562599648,0.0,0.0));
#485=DIRECTION('',(-1.0,0.0,0.0));
#486=DIRECTION('',(0.0,1.0,0.0));
#487=AXIS2_PLACEMENT_3D('',#484,#485,#486);
#488=CIRCLE('',#487,0.112500000000000);
#489=EDGE_CURVE('',#483,#483,#488,.T.);
#490=ORIENTED_EDGE('',*,*,#489,.F.);
#491=EDGE_LOOP('',(#490));
#492=FACE_BOUND('',#491,.T.);
#493=ADVANCED_FACE('',(#481,#492),#478,.F.);
#494=CARTESIAN_POINT('',(0.983817562599648,2.255534E-016,1.387779E-015));
#495=DIRECTION('',(1.0,0.0,0.0));
#496=DIRECTION('',(0.0,0.0,-1.0));
#497=AXIS2_PLACEMENT_3D('',#494,#495,#496);
#498=PLANE('',#497);
#499=ORIENTED_EDGE('',*,*,#489,.T.);
#500=EDGE_LOOP('',(#499));
#501=FACE_OUTER_BOUND('',#500,.T.);
#502=ADVANCED_FACE('',(#501),#498,.F.);
#503=CLOSED_SHELL('',(#464,#473,#493,#502));
#504=ORIENTED_CLOSED_SHELL('',*,#503,.F.);
#505=CARTESIAN_POINT('',(0.983817562599648,2.255534E-016,1.387779E-015));
#506=DIRECTION('',(1.0,0.0,0.0));
#507=DIRECTION('',(0.0,0.0,-1.0));
#508=AXIS2_PLACEMENT_3D('',#505,#506,#507);
#509=PLANE('',#508);
#510=CARTESIAN_POINT('',(0.983817562599648,-0.144000000000000,7.833842E-016));
#511=VERTEX_POINT('',#510);
#512=CARTESIAN_POINT('',(0.983817562599648,0.0,1.788931E-015));
#513=DIRECTION('',(-1.0,0.0,0.0));
#514=DIRECTION('',(0.0,1.0,0.0));
#515=AXIS2_PLACEMENT_3D('',#512,#513,#514);
#516=CIRCLE('',#515,0.144000000000000);
#517=EDGE_CURVE('',#511,#511,#516,.T.);
#518=ORIENTED_EDGE('',*,*,#517,.T.);
#519=EDGE_LOOP('',(#518));
#520=FACE_OUTER_BOUND('',#519,.T.);
#521=CARTESIAN_POINT('',(0.983817562599648,-0.132500000000000,2.702444E-015));
#522=VERTEX_POINT('',#521);
#523=CARTESIAN_POINT('',(0.983817562599648,0.0,1.777201E-015));
#524=DIRECTION('',(1.0,0.0,0.0));
#525=DIRECTION('',(0.0,1.0,0.0));
#526=AXIS2_PLACEMENT_3D('',#523,#524,#525);
#527=CIRCLE('',#526,0.132500000000000);
#528=EDGE_CURVE('',#522,#522,#527,.T.);
#529=ORIENTED_EDGE('',*,*,#528,.T.);
#530=EDGE_LOOP('',(#529));
#531=FACE_BOUND('',#530,.T.);
#532=ADVANCED_FACE('',(#520,#531),#509,.F.);
#533=CARTESIAN_POINT('',(0.990711999999996,0.0,1.776357E-015));
#534=DIRECTION('',(-1.0,0.0,1.224606E-016));
#535=DIRECTION('',(0.0,1.0,0.0));
#536=AXIS2_PLACEMENT_3D('',#533,#534,#535);
#537=CYLINDRICAL_SURFACE('',#536,0.132500000000000);
#538=CARTESIAN_POINT('',(0.960712000000002,0.132500000000000,1.776357E-015));
#539=VERTEX_POINT('',#538);
#540=CARTESIAN_POINT('',(0.960712400000000,0.0,1.780031E-015));
#541=DIRECTION('',(-1.0,0.0,0.0));
#542=DIRECTION('',(0.0,1.0,0.0));
#543=AXIS2_PLACEMENT_3D('',#540,#541,#542);
#544=CIRCLE('',#543,0.132500000000000);
#545=EDGE_CURVE('',#539,#539,#544,.T.);
#546=ORIENTED_EDGE('',*,*,#545,.F.);
#547=EDGE_LOOP('',(#546));
#548=FACE_OUTER_BOUND('',#547,.T.);
#549=ORIENTED_EDGE('',*,*,#528,.F.);
#550=EDGE_LOOP('',(#549));
#551=FACE_BOUND('',#550,.T.);
#552=ADVANCED_FACE('',(#548,#551),#537,.T.);
#553=CARTESIAN_POINT('',(1.086500000000002,0.0,1.776357E-015));
#554=DIRECTION('',(-1.0,0.0,1.224606E-016));
#555=DIRECTION('',(0.0,1.0,0.0));
#556=AXIS2_PLACEMENT_3D('',#553,#554,#555);
#557=CYLINDRICAL_SURFACE('',#556,0.144000000000000);
#558=ORIENTED_EDGE('',*,*,#517,.F.);
#559=EDGE_LOOP('',(#558));
#560=FACE_OUTER_BOUND('',#559,.T.);
#561=CARTESIAN_POINT('',(0.960712400000000,0.144000000000000,0.0));
#562=VERTEX_POINT('',#561);
#563=CARTESIAN_POINT('',(0.960712400000000,0.0,1.791761E-015));
#564=DIRECTION('',(1.0,0.0,0.0));
#565=DIRECTION('',(0.0,1.0,0.0));
#566=AXIS2_PLACEMENT_3D('',#563,#564,#565);
#567=CIRCLE('',#566,0.144000000000000);
#568=EDGE_CURVE('',#562,#562,#567,.T.);
#569=ORIENTED_EDGE('',*,*,#568,.F.);
#570=EDGE_LOOP('',(#569));
#571=FACE_BOUND('',#570,.T.);
#572=ADVANCED_FACE('',(#560,#571),#557,.F.);
#573=CARTESIAN_POINT('',(0.960712400000000,0.187500000000000,1.829273E-015));
#574=DIRECTION('',(1.0,0.0,0.0));
#575=DIRECTION('',(0.0,0.0,-1.0));
#576=AXIS2_PLACEMENT_3D('',#573,#574,#575);
#577=PLANE('',#576);
#578=ORIENTED_EDGE('',*,*,#568,.T.);
#579=EDGE_LOOP('',(#578));
#580=FACE_OUTER_BOUND('',#579,.T.);
#581=ORIENTED_EDGE('',*,*,#545,.T.);
#582=EDGE_LOOP('',(#581));
#583=FACE_BOUND('',#582,.T.);
#584=ADVANCED_FACE('',(#580,#583),#577,.T.);
#585=CLOSED_SHELL('',(#532,#552,#572,#584));
#586=ORIENTED_CLOSED_SHELL('',*,#585,.F.);
#587=BREP_WITH_VOIDS('',#436,(#504,#586));
#588=COLOUR_RGB('Default',0.752941012382507,0.752941012382507,0.752941012382507);
#589=FILL_AREA_STYLE_COLOUR('Default',#588);
#590=FILL_AREA_STYLE('Default',(#589));
#591=SURFACE_STYLE_FILL_AREA(#590);
#592=SURFACE_SIDE_STYLE('Default',(#591));
#593=SURFACE_STYLE_USAGE(.BOTH.,#592);
#594=PRESENTATION_STYLE_ASSIGNMENT((#593));
#595=STYLED_ITEM('',(#594),#587);
#596=MECHANICAL_DESIGN_GEOMETRIC_PRESENTATION_REPRESENTATION('',(#595),#42);
#597=ADVANCED_BREP_SHAPE_REPRESENTATION('ABSR',(#587),#42);
#598=SHAPE_REPRESENTATION_RELATIONSHIP('SRR','None',#597,#47);
ENDSEC;
END-ISO-10303-21;
