ISO-10303-21;
HEADER;
/****************************************************************
 * Generated by software with PDE/Lib inside                    *
 * PDElib Version v51a, created Tue 12/06/2005                  *
 * International Technegroup Inc. (www.iti-oh.com)              *
 ****************************************************************/
FILE_DESCRIPTION((''),'2;1');
FILE_NAME('C:\\Documents and Settings\\JC.DESIGN\\Desktop\\Transfer File\\Web files from Annette\\WEB 3d new\\flg-fc_2.stp','2013-05-03T11:21:05',('JC'),(''),'Autodesk Inventor 11','Autodesk Inventor 11','');
FILE_SCHEMA(('AUTOMOTIVE_DESIGN { 1 0 10303 214 1 1 1 1 }'));
ENDSEC;
DATA;
#5=APPLICATION_CONTEXT('automotive design');
#6=APPLICATION_PROTOCOL_DEFINITION('Draft International Standard','automotive_design',1998,#5);
#7=PRODUCT_CONTEXT('None',#5,'mechanical');
#8=PRODUCT('flg-fc_21','flg-fc_21','None',(#7));
#9=PRODUCT_RELATED_PRODUCT_CATEGORY('part','description',(#8));
#10=PRODUCT_DEFINITION_FORMATION('None','None',#8);
#11=PRODUCT_DEFINITION_CONTEXT('part definition',#5,'design');
#12=PRODUCT_DEFINITION('None','None',#10,#11);
#18=(NAMED_UNIT(*)PLANE_ANGLE_UNIT()SI_UNIT($,.RADIAN.));
#19=DIMENSIONAL_EXPONENTS(0.0,0.0,0.0,0.0,0.0,0.0,0.0);
#20=PLANE_ANGLE_MEASURE_WITH_UNIT(PLANE_ANGLE_MEASURE(0.017453292500000),#18);
#24=(CONVERSION_BASED_UNIT('DEGREE',#20)NAMED_UNIT(#19)PLANE_ANGLE_UNIT());
#28=(NAMED_UNIT(*)SI_UNIT($,.STERADIAN.)SOLID_ANGLE_UNIT());
#32=(LENGTH_UNIT()NAMED_UNIT(*)SI_UNIT(.CENTI.,.METRE.));
#33=DIMENSIONAL_EXPONENTS(1.0,0.0,0.0,0.0,0.0,0.0,0.0);
#34=LENGTH_MEASURE_WITH_UNIT(LENGTH_MEASURE(2.540000000000000),#32);
#38=(CONVERSION_BASED_UNIT('INCH',#34)LENGTH_UNIT()NAMED_UNIT(#33));
#40=UNCERTAINTY_MEASURE_WITH_UNIT(LENGTH_MEASURE(0.000393700787402),#38,'DISTANCE_ACCURACY_VALUE','');
#42=(GEOMETRIC_REPRESENTATION_CONTEXT(3)GLOBAL_UNCERTAINTY_ASSIGNED_CONTEXT((#40))GLOBAL_UNIT_ASSIGNED_CONTEXT((#24,#28,#38))REPRESENTATION_CONTEXT('None','None'));
#43=AXIS2_PLACEMENT_3D('',#44,#45,#46);
#44=CARTESIAN_POINT('',(0.0,0.0,0.0));
#45=DIRECTION('',(0.0,0.0,1.0));
#46=DIRECTION('',(1.0,0.0,0.0));
#47=SHAPE_REPRESENTATION('',(#43),#42);
#48=PRODUCT_DEFINITION_SHAPE('','',#12);
#49=SHAPE_DEFINITION_REPRESENTATION(#48,#47);
#50=CARTESIAN_POINT('',(0.950712000000000,-2.220446E-016,1.776357E-015));
#51=DIRECTION('',(-1.0,-4.898425E-016,1.224606E-016));
#52=DIRECTION('',(0.0,1.0,0.0));
#53=AXIS2_PLACEMENT_3D('',#50,#51,#52);
#54=CYLINDRICAL_SURFACE('',#53,0.140000000000000);
#55=CARTESIAN_POINT('',(0.975711999999998,0.140000000000000,1.776357E-015));
#56=VERTEX_POINT('',#55);
#57=CARTESIAN_POINT('',(0.975711999999998,-2.220446E-016,1.776357E-015));
#58=DIRECTION('',(1.0,0.0,0.0));
#59=DIRECTION('',(0.0,1.0,0.0));
#60=AXIS2_PLACEMENT_3D('',#57,#58,#59);
#61=CIRCLE('',#60,0.140000000000000);
#62=EDGE_CURVE('',#56,#56,#61,.T.);
#63=ORIENTED_EDGE('',*,*,#62,.F.);
#64=EDGE_LOOP('',(#63));
#65=FACE_OUTER_BOUND('',#64,.T.);
#66=CARTESIAN_POINT('',(0.966500000000000,-0.140000000000000,7.968081E-016));
#67=VERTEX_POINT('',#66);
#68=CARTESIAN_POINT('',(0.966500000000000,-2.143110E-016,1.774423E-015));
#69=DIRECTION('',(-1.0,0.0,0.0));
#70=DIRECTION('',(0.0,1.0,0.0));
#71=AXIS2_PLACEMENT_3D('',#68,#69,#70);
#72=CIRCLE('',#71,0.140000000000000);
#73=EDGE_CURVE('',#67,#67,#72,.T.);
#74=ORIENTED_EDGE('',*,*,#73,.F.);
#75=EDGE_LOOP('',(#74));
#76=FACE_BOUND('',#75,.T.);
#77=ADVANCED_FACE('',(#65,#76),#54,.T.);
#78=CARTESIAN_POINT('',(1.106962000000000,-2.220446E-016,0.0));
#79=DIRECTION('',(1.0,0.0,0.0));
#80=DIRECTION('',(0.0,1.0,0.0));
#81=AXIS2_PLACEMENT_3D('',#78,#79,#80);
#82=CONICAL_SURFACE('',#81,0.131250000000000,44.999999999998970);
#83=CARTESIAN_POINT('',(1.088211999999995,-0.112500000000000,-7.855838E-016));
#84=VERTEX_POINT('',#83);
#85=CARTESIAN_POINT('',(1.088211999999995,-2.220446E-016,0.0));
#86=DIRECTION('',(-1.0,0.0,0.0));
#87=DIRECTION('',(0.0,1.0,0.0));
#88=AXIS2_PLACEMENT_3D('',#85,#86,#87);
#89=CIRCLE('',#88,0.112500000000000);
#90=EDGE_CURVE('',#84,#84,#89,.T.);
#91=ORIENTED_EDGE('',*,*,#90,.T.);
#92=EDGE_LOOP('',(#91));
#93=FACE_OUTER_BOUND('',#92,.T.);
#94=CARTESIAN_POINT('',(1.125711999999997,-0.150000000000000,-1.047445E-015));
#95=VERTEX_POINT('',#94);
#96=CARTESIAN_POINT('',(1.125711999999997,-2.220446E-016,0.0));
#97=DIRECTION('',(1.0,0.0,0.0));
#98=DIRECTION('',(0.0,1.0,0.0));
#99=AXIS2_PLACEMENT_3D('',#96,#97,#98);
#100=CIRCLE('',#99,0.150000000000000);
#101=EDGE_CURVE('',#95,#95,#100,.T.);
#102=ORIENTED_EDGE('',*,*,#101,.T.);
#103=EDGE_LOOP('',(#102));
#104=FACE_BOUND('',#103,.T.);
#105=ADVANCED_FACE('',(#93,#104),#82,.F.);
#106=CARTESIAN_POINT('',(1.125711999999997,-2.220446E-016,8.881784E-016));
#107=DIRECTION('',(-1.0,0.0,0.0));
#108=DIRECTION('',(0.0,-1.0,0.0));
#109=AXIS2_PLACEMENT_3D('',#106,#107,#108);
#110=PLANE('',#109);
#111=CARTESIAN_POINT('',(1.125711999999997,-0.177500000000000,-5.368802E-016));
#112=VERTEX_POINT('',#111);
#113=CARTESIAN_POINT('',(1.125711999999997,-2.220446E-016,-1.776357E-015));
#114=DIRECTION('',(-1.0,0.0,0.0));
#115=DIRECTION('',(0.0,1.0,0.0));
#116=AXIS2_PLACEMENT_3D('',#113,#114,#115);
#117=CIRCLE('',#116,0.177500000000000);
#118=EDGE_CURVE('',#112,#112,#117,.T.);
#119=ORIENTED_EDGE('',*,*,#118,.F.);
#120=EDGE_LOOP('',(#119));
#121=FACE_OUTER_BOUND('',#120,.T.);
#122=ORIENTED_EDGE('',*,*,#101,.F.);
#123=EDGE_LOOP('',(#122));
#124=FACE_BOUND('',#123,.T.);
#125=ADVANCED_FACE('',(#121,#124),#110,.F.);
#126=CARTESIAN_POINT('',(1.120711999999994,-2.220446E-016,-1.776357E-015));
#127=DIRECTION('',(-1.0,0.0,0.0));
#128=DIRECTION('',(0.0,1.0,0.0));
#129=AXIS2_PLACEMENT_3D('',#126,#127,#128);
#130=CONICAL_SURFACE('',#129,0.182500000000000,45.000000000005727);
#131=CARTESIAN_POINT('',(1.115711999999999,-0.187500000000000,-4.670506E-016));
#132=VERTEX_POINT('',#131);
#133=CARTESIAN_POINT('',(1.115711999999999,-2.220446E-016,-1.776357E-015));
#134=DIRECTION('',(1.0,0.0,0.0));
#135=DIRECTION('',(0.0,1.0,0.0));
#136=AXIS2_PLACEMENT_3D('',#133,#134,#135);
#137=CIRCLE('',#136,0.187500000000000);
#138=EDGE_CURVE('',#132,#132,#137,.T.);
#139=ORIENTED_EDGE('',*,*,#138,.T.);
#140=EDGE_LOOP('',(#139));
#141=FACE_OUTER_BOUND('',#140,.T.);
#142=ORIENTED_EDGE('',*,*,#118,.T.);
#143=EDGE_LOOP('',(#142));
#144=FACE_BOUND('',#143,.T.);
#145=ADVANCED_FACE('',(#141,#144),#130,.T.);
#146=CARTESIAN_POINT('',(3.514211999999997,-2.220446E-016,-1.776357E-015));
#147=DIRECTION('',(1.0,0.0,0.0));
#148=DIRECTION('',(0.0,1.0,0.0));
#149=AXIS2_PLACEMENT_3D('',#146,#147,#148);
#150=CYLINDRICAL_SURFACE('',#149,0.187500000000000);
#151=CARTESIAN_POINT('',(0.975711999999998,-0.187500000000000,1.776357E-015));
#152=VERTEX_POINT('',#151);
#153=CARTESIAN_POINT('',(0.975711999999998,-2.220446E-016,3.552714E-015));
#154=DIRECTION('',(-1.0,0.0,0.0));
#155=DIRECTION('',(0.0,1.0,0.0));
#156=AXIS2_PLACEMENT_3D('',#153,#154,#155);
#157=CIRCLE('',#156,0.187500000000000);
#158=EDGE_CURVE('',#152,#152,#157,.T.);
#159=ORIENTED_EDGE('',*,*,#158,.F.);
#160=EDGE_LOOP('',(#159));
#161=FACE_OUTER_BOUND('',#160,.T.);
#162=ORIENTED_EDGE('',*,*,#138,.F.);
#163=EDGE_LOOP('',(#162));
#164=FACE_BOUND('',#163,.T.);
#165=ADVANCED_FACE('',(#161,#164),#150,.T.);
#166=CARTESIAN_POINT('',(0.975711999999998,-2.220446E-016,3.552714E-015));
#167=DIRECTION('',(1.0,0.0,0.0));
#168=DIRECTION('',(0.0,-1.0,0.0));
#169=AXIS2_PLACEMENT_3D('',#166,#167,#168);
#170=PLANE('',#169);
#171=ORIENTED_EDGE('',*,*,#158,.T.);
#172=EDGE_LOOP('',(#171));
#173=FACE_OUTER_BOUND('',#172,.T.);
#174=ORIENTED_EDGE('',*,*,#62,.T.);
#175=EDGE_LOOP('',(#174));
#176=FACE_BOUND('',#175,.T.);
#177=ADVANCED_FACE('',(#173,#176),#170,.F.);
#178=CARTESIAN_POINT('',(0.966500000000000,0.164000000000001,0.0));
#179=DIRECTION('',(1.0,0.0,0.0));
#180=DIRECTION('',(0.0,0.0,-1.0));
#181=AXIS2_PLACEMENT_3D('',#178,#179,#180);
#182=PLANE('',#181);
#183=CARTESIAN_POINT('',(0.966500000000000,0.187500000000000,0.0));
#184=VERTEX_POINT('',#183);
#185=CARTESIAN_POINT('',(0.966500000000000,-2.220446E-016,0.0));
#186=DIRECTION('',(1.0,0.0,0.0));
#187=DIRECTION('',(0.0,1.0,0.0));
#188=AXIS2_PLACEMENT_3D('',#185,#186,#187);
#189=CIRCLE('',#188,0.187500000000000);
#190=EDGE_CURVE('',#184,#184,#189,.T.);
#191=ORIENTED_EDGE('',*,*,#190,.T.);
#192=EDGE_LOOP('',(#191));
#193=FACE_OUTER_BOUND('',#192,.T.);
#194=ORIENTED_EDGE('',*,*,#73,.T.);
#195=EDGE_LOOP('',(#194));
#196=FACE_BOUND('',#195,.T.);
#197=ADVANCED_FACE('',(#193,#196),#182,.T.);
#198=CARTESIAN_POINT('',(-0.072500000000005,0.050000000000004,0.068624999999998));
#199=DIRECTION('',(1.0,0.0,0.0));
#200=DIRECTION('',(0.0,0.0,-1.0));
#201=AXIS2_PLACEMENT_3D('',#198,#199,#200);
#202=PLANE('',#201);
#203=CARTESIAN_POINT('',(-0.072500000000005,0.050000000000004,0.128086884574493));
#204=VERTEX_POINT('',#203);
#205=CARTESIAN_POINT('',(-0.072500000000005,-0.049999999999997,0.128086884574494));
#206=VERTEX_POINT('',#205);
#207=CARTESIAN_POINT('',(-0.072500000000005,0.0,0.0));
#208=DIRECTION('',(1.0,0.0,0.0));
#209=DIRECTION('',(0.0,1.0,0.0));
#210=AXIS2_PLACEMENT_3D('',#207,#208,#209);
#211=CIRCLE('',#210,0.137500000000000);
#212=EDGE_CURVE('',#204,#206,#211,.T.);
#213=ORIENTED_EDGE('',*,*,#212,.F.);
#214=CARTESIAN_POINT('',(-0.072500000000005,0.050000000000004,0.107572722495060));
#215=VERTEX_POINT('',#214);
#216=CARTESIAN_POINT('',(-0.072500000000005,0.050000000000004,0.107572722495060));
#217=DIRECTION('',(0.0,0.0,1.0));
#218=VECTOR('',#217,0.020514162079433);
#219=LINE('',#216,#218);
#220=EDGE_CURVE('',#215,#204,#219,.T.);
#221=ORIENTED_EDGE('',*,*,#220,.F.);
#222=CARTESIAN_POINT('',(-0.072500000000005,-0.049999999999997,0.107572722495061));
#223=VERTEX_POINT('',#222);
#224=CARTESIAN_POINT('',(-0.072500000000005,0.0,0.0));
#225=DIRECTION('',(-1.0,0.0,0.0));
#226=DIRECTION('',(0.0,1.0,0.0));
#227=AXIS2_PLACEMENT_3D('',#224,#225,#226);
#228=CIRCLE('',#227,0.118624999999998);
#229=EDGE_CURVE('',#223,#215,#228,.T.);
#230=ORIENTED_EDGE('',*,*,#229,.F.);
#231=CARTESIAN_POINT('',(-0.072500000000005,-0.049999999999997,0.107572722495061));
#232=DIRECTION('',(0.0,0.0,1.0));
#233=VECTOR('',#232,0.020514162079433);
#234=LINE('',#231,#233);
#235=EDGE_CURVE('',#223,#206,#234,.T.);
#236=ORIENTED_EDGE('',*,*,#235,.T.);
#237=EDGE_LOOP('',(#213,#221,#230,#236));
#238=FACE_OUTER_BOUND('',#237,.T.);
#239=ADVANCED_FACE('',(#238),#202,.F.);
#240=CARTESIAN_POINT('',(-0.072500000000005,-0.049999999999997,0.068624999999998));
#241=DIRECTION('',(0.0,-1.0,0.0));
#242=DIRECTION('',(0.0,0.0,-1.0));
#243=AXIS2_PLACEMENT_3D('',#240,#241,#242);
#244=PLANE('',#243);
#245=CARTESIAN_POINT('',(-0.090650000000004,-0.049999999999997,0.147400551220134));
#246=VERTEX_POINT('',#245);
#247=CARTESIAN_POINT('',(-0.072500000000005,-0.049999999999997,0.128086884574494));
#248=CARTESIAN_POINT('',(-0.080938776702549,-0.049999999999997,0.137145827654062));
#249=CARTESIAN_POINT('',(-0.090650000000004,-0.049999999999997,0.147400551220131));
#257=(BOUNDED_CURVE()B_SPLINE_CURVE(2,(#247,#248,#249),.UNSPECIFIED.,.F.,.U.)B_SPLINE_CURVE_WITH_KNOTS((3,3),(0.0,0.026503644370021),.UNSPECIFIED.)CURVE()GEOMETRIC_REPRESENTATION_ITEM()RATIONAL_B_SPLINE_CURVE((1.0,1.002177390523886,1.0))REPRESENTATION_ITEM(''));
#258=EDGE_CURVE('',#206,#246,#257,.T.);
#259=ORIENTED_EDGE('',*,*,#258,.F.);
#260=ORIENTED_EDGE('',*,*,#235,.F.);
#261=CARTESIAN_POINT('',(-0.172500000000007,-0.049999999999997,0.107572722495061));
#262=VERTEX_POINT('',#261);
#263=CARTESIAN_POINT('',(-0.172500000000007,-0.049999999999997,0.107572722495061));
#264=DIRECTION('',(1.0,0.0,0.0));
#265=VECTOR('',#264,0.100000000000001);
#266=LINE('',#263,#265);
#267=EDGE_CURVE('',#262,#223,#266,.T.);
#268=ORIENTED_EDGE('',*,*,#267,.F.);
#269=CARTESIAN_POINT('',(-0.172500000000007,-0.049999999999997,0.126098860026563));
#270=VERTEX_POINT('',#269);
#271=CARTESIAN_POINT('',(-0.172500000000007,-0.049999999999997,0.126098860026563));
#272=DIRECTION('',(0.0,0.0,-1.0));
#273=VECTOR('',#272,0.018526137531502);
#274=LINE('',#271,#273);
#275=EDGE_CURVE('',#270,#262,#274,.T.);
#276=ORIENTED_EDGE('',*,*,#275,.F.);
#277=CARTESIAN_POINT('',(-0.152500000000003,-0.049999999999997,0.147400551220134));
#278=VERTEX_POINT('',#277);
#279=CARTESIAN_POINT('',(-0.152500000000003,-0.049999999999997,0.147400551220133));
#280=CARTESIAN_POINT('',(-0.163278856930447,-0.049999999999997,0.136018442623283));
#281=CARTESIAN_POINT('',(-0.172500000000003,-0.049999999999997,0.126098860026568));
#289=(BOUNDED_CURVE()B_SPLINE_CURVE(2,(#279,#280,#281),.UNSPECIFIED.,.F.,.U.)B_SPLINE_CURVE_WITH_KNOTS((3,3),(0.0,0.029219284587124),.UNSPECIFIED.)CURVE()GEOMETRIC_REPRESENTATION_ITEM()RATIONAL_B_SPLINE_CURVE((1.0,1.002684499155738,1.0))REPRESENTATION_ITEM(''));
#290=EDGE_CURVE('',#278,#270,#289,.T.);
#291=ORIENTED_EDGE('',*,*,#290,.F.);
#292=CARTESIAN_POINT('',(-0.090650000000004,-0.049999999999997,0.147400551220134));
#293=DIRECTION('',(-1.0,0.0,0.0));
#294=VECTOR('',#293,0.061850000000000);
#295=LINE('',#292,#294);
#296=EDGE_CURVE('',#246,#278,#295,.T.);
#297=ORIENTED_EDGE('',*,*,#296,.F.);
#298=EDGE_LOOP('',(#259,#260,#268,#276,#291,#297));
#299=FACE_OUTER_BOUND('',#298,.T.);
#300=ADVANCED_FACE('',(#299),#244,.F.);
#301=CARTESIAN_POINT('',(-0.172500000000007,0.049999999999997,0.068624999999998));
#302=DIRECTION('',(0.0,1.0,0.0));
#303=DIRECTION('',(0.0,0.0,1.0));
#304=AXIS2_PLACEMENT_3D('',#301,#302,#303);
#305=PLANE('',#304);
#306=CARTESIAN_POINT('',(-0.090650000000004,0.050000000000004,0.147400551220132));
#307=VERTEX_POINT('',#306);
#308=CARTESIAN_POINT('',(-0.090650000000004,0.050000000000004,0.147400551220130));
#309=CARTESIAN_POINT('',(-0.080938776702620,0.050000000000011,0.137145827654136));
#310=CARTESIAN_POINT('',(-0.072500000000005,0.050000000000011,0.128086884574492));
#318=(BOUNDED_CURVE()B_SPLINE_CURVE(2,(#308,#309,#310),.UNSPECIFIED.,.F.,.U.)B_SPLINE_CURVE_WITH_KNOTS((3,3),(0.0,0.026503644370022),.UNSPECIFIED.)CURVE()GEOMETRIC_REPRESENTATION_ITEM()RATIONAL_B_SPLINE_CURVE((1.0,1.002177390493406,1.0))REPRESENTATION_ITEM(''));
#319=EDGE_CURVE('',#307,#204,#318,.T.);
#320=ORIENTED_EDGE('',*,*,#319,.F.);
#321=CARTESIAN_POINT('',(-0.152500000000003,0.049999999999997,0.147400551220134));
#322=VERTEX_POINT('',#321);
#323=CARTESIAN_POINT('',(-0.152500000000003,0.049999999999997,0.147400551220134));
#324=DIRECTION('',(1.0,1.147694E-013,-2.154030E-014));
#325=VECTOR('',#324,0.061850000000000);
#326=LINE('',#323,#325);
#327=EDGE_CURVE('',#322,#307,#326,.T.);
#328=ORIENTED_EDGE('',*,*,#327,.F.);
#329=CARTESIAN_POINT('',(-0.172500000000007,0.049999999999997,0.126098860026563));
#330=VERTEX_POINT('',#329);
#331=CARTESIAN_POINT('',(-0.172500000000003,0.049999999999997,0.126098860026568));
#332=CARTESIAN_POINT('',(-0.163278856930482,0.049999999999997,0.136018442623245));
#333=CARTESIAN_POINT('',(-0.152500000000003,0.050000000000004,0.147400551220132));
#341=(BOUNDED_CURVE()B_SPLINE_CURVE(2,(#331,#332,#333),.UNSPECIFIED.,.F.,.U.)B_SPLINE_CURVE_WITH_KNOTS((3,3),(0.0,0.029219284587123),.UNSPECIFIED.)CURVE()GEOMETRIC_REPRESENTATION_ITEM()RATIONAL_B_SPLINE_CURVE((1.0,1.002684499118081,1.0))REPRESENTATION_ITEM(''));
#342=EDGE_CURVE('',#330,#322,#341,.T.);
#343=ORIENTED_EDGE('',*,*,#342,.F.);
#344=CARTESIAN_POINT('',(-0.172500000000007,0.049999999999997,0.107572722495061));
#345=VERTEX_POINT('',#344);
#346=CARTESIAN_POINT('',(-0.172500000000007,0.049999999999997,0.107572722495061));
#347=DIRECTION('',(0.0,0.0,1.0));
#348=VECTOR('',#347,0.018526137531502);
#349=LINE('',#346,#348);
#350=EDGE_CURVE('',#345,#330,#349,.T.);
#351=ORIENTED_EDGE('',*,*,#350,.F.);
#352=CARTESIAN_POINT('',(-0.072500000000005,0.050000000000004,0.107572722495060));
#353=DIRECTION('',(-1.0,0.0,0.0));
#354=VECTOR('',#353,0.100000000000001);
#355=LINE('',#352,#354);
#356=EDGE_CURVE('',#215,#345,#355,.T.);
#357=ORIENTED_EDGE('',*,*,#356,.F.);
#358=ORIENTED_EDGE('',*,*,#220,.T.);
#359=EDGE_LOOP('',(#320,#328,#343,#351,#357,#358));
#360=FACE_OUTER_BOUND('',#359,.T.);
#361=ADVANCED_FACE('',(#360),#305,.F.);
#362=CARTESIAN_POINT('',(-0.079075000000003,0.0,0.0));
#363=DIRECTION('',(-1.0,2.449213E-016,0.0));
#364=DIRECTION('',(0.0,1.0,0.0));
#365=AXIS2_PLACEMENT_3D('',#362,#363,#364);
#366=CONICAL_SURFACE('',#365,0.144074999999997,44.999999999995602);
#367=ORIENTED_EDGE('',*,*,#319,.T.);
#368=ORIENTED_EDGE('',*,*,#212,.T.);
#369=ORIENTED_EDGE('',*,*,#258,.T.);
#370=CARTESIAN_POINT('',(-0.090650000000004,0.0,0.0));
#371=DIRECTION('',(1.0,0.0,0.0));
#372=DIRECTION('',(0.0,1.0,0.0));
#373=AXIS2_PLACEMENT_3D('',#370,#371,#372);
#374=CIRCLE('',#373,0.155649999999998);
#375=EDGE_CURVE('',#246,#307,#374,.T.);
#376=ORIENTED_EDGE('',*,*,#375,.T.);
#377=EDGE_LOOP('',(#367,#368,#369,#376));
#378=FACE_OUTER_BOUND('',#377,.T.);
#379=CARTESIAN_POINT('',(-0.067500000000003,0.132500000000000,0.0));
#380=VERTEX_POINT('',#379);
#381=CARTESIAN_POINT('',(-0.067500000000003,0.0,0.0));
#382=DIRECTION('',(1.0,0.0,0.0));
#383=DIRECTION('',(0.0,1.0,0.0));
#384=AXIS2_PLACEMENT_3D('',#381,#382,#383);
#385=CIRCLE('',#384,0.132500000000000);
#386=EDGE_CURVE('',#380,#380,#385,.T.);
#387=ORIENTED_EDGE('',*,*,#386,.F.);
#388=EDGE_LOOP('',(#387));
#389=FACE_BOUND('',#388,.T.);
#390=ADVANCED_FACE('',(#378,#389),#366,.T.);
#391=CARTESIAN_POINT('',(-0.090000000000003,0.0,0.0));
#392=DIRECTION('',(1.0,-2.449213E-016,0.0));
#393=DIRECTION('',(0.0,1.0,0.0));
#394=AXIS2_PLACEMENT_3D('',#391,#392,#393);
#395=CYLINDRICAL_SURFACE('',#394,0.118624999999998);
#396=CARTESIAN_POINT('',(-0.007500000000004,0.118624999999994,0.0));
#397=VERTEX_POINT('',#396);
#398=CARTESIAN_POINT('',(-0.007500000000004,0.0,0.0));
#399=DIRECTION('',(1.0,0.0,0.0));
#400=DIRECTION('',(0.0,1.0,0.0));
#401=AXIS2_PLACEMENT_3D('',#398,#399,#400);
#402=CIRCLE('',#401,0.118624999999998);
#403=EDGE_CURVE('',#397,#397,#402,.T.);
#404=ORIENTED_EDGE('',*,*,#403,.T.);
#405=EDGE_LOOP('',(#404));
#406=FACE_OUTER_BOUND('',#405,.T.);
#407=ORIENTED_EDGE('',*,*,#267,.T.);
#408=ORIENTED_EDGE('',*,*,#229,.T.);
#409=ORIENTED_EDGE('',*,*,#356,.T.);
#410=CARTESIAN_POINT('',(-0.172500000000007,0.0,0.0));
#411=DIRECTION('',(1.0,0.0,0.0));
#412=DIRECTION('',(0.0,1.0,0.0));
#413=AXIS2_PLACEMENT_3D('',#410,#411,#412);
#414=CIRCLE('',#413,0.118624999999998);
#415=EDGE_CURVE('',#262,#345,#414,.T.);
#416=ORIENTED_EDGE('',*,*,#415,.F.);
#417=EDGE_LOOP('',(#407,#408,#409,#416));
#418=FACE_BOUND('',#417,.T.);
#419=ADVANCED_FACE('',(#406,#418),#395,.F.);
#420=CARTESIAN_POINT('',(-0.162500000000001,0.0,0.0));
#421=DIRECTION('',(1.0,-2.449213E-016,0.0));
#422=DIRECTION('',(0.0,1.0,0.0));
#423=AXIS2_PLACEMENT_3D('',#420,#421,#422);
#424=CONICAL_SURFACE('',#423,0.145650000000000,44.999999999994920);
#425=ORIENTED_EDGE('',*,*,#342,.T.);
#426=CARTESIAN_POINT('',(-0.152500000000003,0.0,0.0));
#427=DIRECTION('',(1.0,0.0,0.0));
#428=DIRECTION('',(0.0,1.0,0.0));
#429=AXIS2_PLACEMENT_3D('',#426,#427,#428);
#430=CIRCLE('',#429,0.155649999999998);
#431=EDGE_CURVE('',#278,#322,#430,.T.);
#432=ORIENTED_EDGE('',*,*,#431,.F.);
#433=ORIENTED_EDGE('',*,*,#290,.T.);
#434=CARTESIAN_POINT('',(-0.172500000000003,0.0,0.0));
#435=DIRECTION('',(1.0,0.0,0.0));
#436=DIRECTION('',(0.0,1.0,0.0));
#437=AXIS2_PLACEMENT_3D('',#434,#435,#436);
#438=CIRCLE('',#437,0.135650000000002);
#439=EDGE_CURVE('',#270,#330,#438,.T.);
#440=ORIENTED_EDGE('',*,*,#439,.T.);
#441=EDGE_LOOP('',(#425,#432,#433,#440));
#442=FACE_OUTER_BOUND('',#441,.T.);
#443=ADVANCED_FACE('',(#442),#424,.T.);
#444=CARTESIAN_POINT('',(-0.121575000000004,0.0,0.0));
#445=DIRECTION('',(1.0,-2.449213E-016,0.0));
#446=DIRECTION('',(0.0,1.0,0.0));
#447=AXIS2_PLACEMENT_3D('',#444,#445,#446);
#448=CYLINDRICAL_SURFACE('',#447,0.155649999999998);
#449=ORIENTED_EDGE('',*,*,#327,.T.);
#450=ORIENTED_EDGE('',*,*,#375,.F.);
#451=ORIENTED_EDGE('',*,*,#296,.T.);
#452=ORIENTED_EDGE('',*,*,#431,.T.);
#453=EDGE_LOOP('',(#449,#450,#451,#452));
#454=FACE_OUTER_BOUND('',#453,.T.);
#455=ADVANCED_FACE('',(#454),#448,.T.);
#456=CARTESIAN_POINT('',(-0.037500000000001,0.0,0.0));
#457=DIRECTION('',(1.0,-2.449213E-016,0.0));
#458=DIRECTION('',(0.0,1.0,0.0));
#459=AXIS2_PLACEMENT_3D('',#456,#457,#458);
#460=CYLINDRICAL_SURFACE('',#459,0.132500000000000);
#461=CARTESIAN_POINT('',(-0.007500000000000,0.132500000000000,0.0));
#462=VERTEX_POINT('',#461);
#463=CARTESIAN_POINT('',(-0.007500000000000,0.0,0.0));
#464=DIRECTION('',(1.0,0.0,0.0));
#465=DIRECTION('',(0.0,1.0,0.0));
#466=AXIS2_PLACEMENT_3D('',#463,#464,#465);
#467=CIRCLE('',#466,0.132500000000000);
#468=EDGE_CURVE('',#462,#462,#467,.T.);
#469=ORIENTED_EDGE('',*,*,#468,.F.);
#470=EDGE_LOOP('',(#469));
#471=FACE_OUTER_BOUND('',#470,.T.);
#472=ORIENTED_EDGE('',*,*,#386,.T.);
#473=EDGE_LOOP('',(#472));
#474=FACE_BOUND('',#473,.T.);
#475=ADVANCED_FACE('',(#471,#474),#460,.T.);
#476=CARTESIAN_POINT('',(-0.007500000000000,0.156250000000000,0.0));
#477=DIRECTION('',(-1.0,0.0,0.0));
#478=DIRECTION('',(0.0,0.0,1.0));
#479=AXIS2_PLACEMENT_3D('',#476,#477,#478);
#480=PLANE('',#479);
#481=CARTESIAN_POINT('',(-0.007500000000004,0.180000000000007,0.0));
#482=VERTEX_POINT('',#481);
#483=CARTESIAN_POINT('',(-0.007500000000004,0.0,0.0));
#484=DIRECTION('',(1.0,0.0,0.0));
#485=DIRECTION('',(0.0,1.0,0.0));
#486=AXIS2_PLACEMENT_3D('',#483,#484,#485);
#487=CIRCLE('',#486,0.180000000000003);
#488=EDGE_CURVE('',#482,#482,#487,.T.);
#489=ORIENTED_EDGE('',*,*,#488,.F.);
#490=EDGE_LOOP('',(#489));
#491=FACE_OUTER_BOUND('',#490,.T.);
#492=ORIENTED_EDGE('',*,*,#468,.T.);
#493=EDGE_LOOP('',(#492));
#494=FACE_BOUND('',#493,.T.);
#495=ADVANCED_FACE('',(#491,#494),#480,.T.);
#496=CARTESIAN_POINT('',(-0.003750000000004,0.0,0.0));
#497=DIRECTION('',(1.0,-2.449213E-016,0.0));
#498=DIRECTION('',(0.0,1.0,0.0));
#499=AXIS2_PLACEMENT_3D('',#496,#497,#498);
#500=CONICAL_SURFACE('',#499,0.183750000000000,44.999999999972864);
#501=CARTESIAN_POINT('',(0.0,0.187500000000000,0.0));
#502=VERTEX_POINT('',#501);
#503=CARTESIAN_POINT('',(0.0,0.0,0.0));
#504=DIRECTION('',(1.0,0.0,0.0));
#505=DIRECTION('',(0.0,1.0,0.0));
#506=AXIS2_PLACEMENT_3D('',#503,#504,#505);
#507=CIRCLE('',#506,0.187500000000000);
#508=EDGE_CURVE('',#502,#502,#507,.T.);
#509=ORIENTED_EDGE('',*,*,#508,.F.);
#510=EDGE_LOOP('',(#509));
#511=FACE_OUTER_BOUND('',#510,.T.);
#512=ORIENTED_EDGE('',*,*,#488,.T.);
#513=EDGE_LOOP('',(#512));
#514=FACE_BOUND('',#513,.T.);
#515=ADVANCED_FACE('',(#511,#514),#500,.T.);
#516=CARTESIAN_POINT('',(0.483249999999998,0.0,0.0));
#517=DIRECTION('',(1.0,-2.449213E-016,0.0));
#518=DIRECTION('',(0.0,1.0,0.0));
#519=AXIS2_PLACEMENT_3D('',#516,#517,#518);
#520=CYLINDRICAL_SURFACE('',#519,0.187500000000000);
#521=ORIENTED_EDGE('',*,*,#190,.F.);
#522=EDGE_LOOP('',(#521));
#523=FACE_OUTER_BOUND('',#522,.T.);
#524=ORIENTED_EDGE('',*,*,#508,.T.);
#525=EDGE_LOOP('',(#524));
#526=FACE_BOUND('',#525,.T.);
#527=ADVANCED_FACE('',(#523,#526),#520,.T.);
#528=CARTESIAN_POINT('',(-0.172500000000007,0.127137500000003,0.0));
#529=DIRECTION('',(-1.0,0.0,0.0));
#530=DIRECTION('',(0.0,0.0,1.0));
#531=AXIS2_PLACEMENT_3D('',#528,#529,#530);
#532=PLANE('',#531);
#533=ORIENTED_EDGE('',*,*,#350,.T.);
#534=ORIENTED_EDGE('',*,*,#439,.F.);
#535=ORIENTED_EDGE('',*,*,#275,.T.);
#536=ORIENTED_EDGE('',*,*,#415,.T.);
#537=EDGE_LOOP('',(#533,#534,#535,#536));
#538=FACE_OUTER_BOUND('',#537,.T.);
#539=ADVANCED_FACE('',(#538),#532,.T.);
#540=CARTESIAN_POINT('',(1.088211999999995,0.112500000000000,0.0));
#541=DIRECTION('',(1.0,0.0,0.0));
#542=DIRECTION('',(0.0,0.0,-1.0));
#543=AXIS2_PLACEMENT_3D('',#540,#541,#542);
#544=PLANE('',#543);
#545=ORIENTED_EDGE('',*,*,#90,.F.);
#546=EDGE_LOOP('',(#545));
#547=FACE_OUTER_BOUND('',#546,.T.);
#548=ADVANCED_FACE('',(#547),#544,.T.);
#549=CARTESIAN_POINT('',(-0.007500000000000,8.095376E-017,-1.184204E-016));
#550=DIRECTION('',(1.0,0.0,0.0));
#551=DIRECTION('',(0.0,0.0,-1.0));
#552=AXIS2_PLACEMENT_3D('',#549,#550,#551);
#553=PLANE('',#552);
#554=ORIENTED_EDGE('',*,*,#403,.F.);
#555=EDGE_LOOP('',(#554));
#556=FACE_OUTER_BOUND('',#555,.T.);
#557=ADVANCED_FACE('',(#556),#553,.F.);
#558=CLOSED_SHELL('',(#77,#105,#125,#145,#165,#177,#197,#239,#300,#361,#390,#419,#443,#455,#475,#495,#515,#527,#539,#548,#557));
#559=MANIFOLD_SOLID_BREP('',#558);
#560=COLOUR_RGB('Default',0.752941012382507,0.752941012382507,0.752941012382507);
#561=FILL_AREA_STYLE_COLOUR('Default',#560);
#562=FILL_AREA_STYLE('Default',(#561));
#563=SURFACE_STYLE_FILL_AREA(#562);
#564=SURFACE_SIDE_STYLE('Default',(#563));
#565=SURFACE_STYLE_USAGE(.BOTH.,#564);
#566=PRESENTATION_STYLE_ASSIGNMENT((#565));
#567=STYLED_ITEM('',(#566),#559);
#568=MECHANICAL_DESIGN_GEOMETRIC_PRESENTATION_REPRESENTATION('',(#567),#42);
#569=ADVANCED_BREP_SHAPE_REPRESENTATION('ABSR',(#559),#42);
#570=SHAPE_REPRESENTATION_RELATIONSHIP('SRR','None',#569,#47);
ENDSEC;
END-ISO-10303-21;
