ISO-10303-21;
HEADER;
/****************************************************************
 * Generated by software with PDE/Lib inside                    *
 * PDElib Version v51a, created Tue 12/06/2005                  *
 * International Technegroup Inc. (www.iti-oh.com)              *
 ****************************************************************/
FILE_DESCRIPTION((''),'2;1');
FILE_NAME('C:\\Documents and Settings\\JC.DESIGN\\Desktop\\Transfer File\\Web files from Annette\\WEB 3d UPDATES\\is-obta.stp','2011-11-10T14:36:42',('JC'),(''),'Autodesk Inventor 11','Autodesk Inventor 11','');
FILE_SCHEMA(('AUTOMOTIVE_DESIGN { 1 0 10303 214 1 1 1 1 }'));
ENDSEC;
DATA;
#5=APPLICATION_CONTEXT('automotive design');
#6=APPLICATION_PROTOCOL_DEFINITION('Draft International Standard','automotive_design',1998,#5);
#7=PRODUCT_CONTEXT('None',#5,'mechanical');
#8=PRODUCT('is-obta1','is-obta1','None',(#7));
#9=PRODUCT_RELATED_PRODUCT_CATEGORY('part','description',(#8));
#10=PRODUCT_DEFINITION_FORMATION('None','None',#8);
#11=PRODUCT_DEFINITION_CONTEXT('part definition',#5,'design');
#12=PRODUCT_DEFINITION('None','None',#10,#11);
#18=(NAMED_UNIT(*)PLANE_ANGLE_UNIT()SI_UNIT($,.RADIAN.));
#19=DIMENSIONAL_EXPONENTS(0.0,0.0,0.0,0.0,0.0,0.0,0.0);
#20=PLANE_ANGLE_MEASURE_WITH_UNIT(PLANE_ANGLE_MEASURE(0.017453292500000),#18);
#24=(CONVERSION_BASED_UNIT('DEGREE',#20)NAMED_UNIT(#19)PLANE_ANGLE_UNIT());
#28=(NAMED_UNIT(*)SI_UNIT($,.STERADIAN.)SOLID_ANGLE_UNIT());
#32=(LENGTH_UNIT()NAMED_UNIT(*)SI_UNIT(.CENTI.,.METRE.));
#33=DIMENSIONAL_EXPONENTS(1.0,0.0,0.0,0.0,0.0,0.0,0.0);
#34=LENGTH_MEASURE_WITH_UNIT(LENGTH_MEASURE(2.540000000000000),#32);
#38=(CONVERSION_BASED_UNIT('INCH',#34)LENGTH_UNIT()NAMED_UNIT(#33));
#40=UNCERTAINTY_MEASURE_WITH_UNIT(LENGTH_MEASURE(0.000393700787402),#38,'DISTANCE_ACCURACY_VALUE','');
#42=(GEOMETRIC_REPRESENTATION_CONTEXT(3)GLOBAL_UNCERTAINTY_ASSIGNED_CONTEXT((#40))GLOBAL_UNIT_ASSIGNED_CONTEXT((#24,#28,#38))REPRESENTATION_CONTEXT('None','None'));
#43=AXIS2_PLACEMENT_3D('',#44,#45,#46);
#44=CARTESIAN_POINT('',(0.0,0.0,0.0));
#45=DIRECTION('',(0.0,0.0,1.0));
#46=DIRECTION('',(1.0,0.0,0.0));
#47=SHAPE_REPRESENTATION('',(#43),#42);
#48=PRODUCT_DEFINITION_SHAPE('','',#12);
#49=SHAPE_DEFINITION_REPRESENTATION(#48,#47);
#50=CARTESIAN_POINT('',(-0.866025403784439,-0.499999999999999,-0.187499999999996));
#51=DIRECTION('',(0.0,0.0,-1.0));
#52=DIRECTION('',(0.500000000000000,-0.866025403784439,1.645976E-017));
#53=AXIS2_PLACEMENT_3D('',#50,#51,#52);
#54=CONICAL_SURFACE('',#53,0.093000000000000,44.999999999998749);
#55=CARTESIAN_POINT('',(-0.909025403784439,-0.425521815274537,-0.180499999999996));
#56=VERTEX_POINT('',#55);
#57=CARTESIAN_POINT('',(-0.866025403784439,-0.499999999999999,-0.180499999999996));
#58=DIRECTION('',(0.0,0.0,1.000000000000000));
#59=DIRECTION('',(0.500000000000000,-0.866025403784439,0.0));
#60=AXIS2_PLACEMENT_3D('',#57,#58,#59);
#61=CIRCLE('',#60,0.086000000000000);
#62=EDGE_CURVE('',#56,#56,#61,.T.);
#63=ORIENTED_EDGE('',*,*,#62,.T.);
#64=EDGE_LOOP('',(#63));
#65=FACE_OUTER_BOUND('',#64,.T.);
#66=CARTESIAN_POINT('',(-0.916025403784438,-0.413397459621556,-0.194499999999996));
#67=VERTEX_POINT('',#66);
#68=CARTESIAN_POINT('',(-0.866025403784439,-0.499999999999999,-0.194499999999996));
#69=DIRECTION('',(1.530758E-017,-2.651351E-017,-1.0));
#70=DIRECTION('',(0.500000000000000,-0.866025403784439,3.061516E-017));
#71=AXIS2_PLACEMENT_3D('',#68,#69,#70);
#72=CIRCLE('',#71,0.100000000000000);
#73=EDGE_CURVE('',#67,#67,#72,.T.);
#74=ORIENTED_EDGE('',*,*,#73,.T.);
#75=EDGE_LOOP('',(#74));
#76=FACE_BOUND('',#75,.T.);
#77=ADVANCED_FACE('',(#65,#76),#54,.F.);
#78=CARTESIAN_POINT('',(0.0,0.941500000000000,-0.194499999999996));
#79=DIRECTION('',(0.0,0.0,-1.0));
#80=DIRECTION('',(-1.0,0.0,0.0));
#81=AXIS2_PLACEMENT_3D('',#78,#79,#80);
#82=PLANE('',#81);
#83=CARTESIAN_POINT('',(0.0,1.147999999999999,-0.194499999999996));
#84=VERTEX_POINT('',#83);
#85=CARTESIAN_POINT('',(0.0,0.0,-0.194499999999996));
#86=DIRECTION('',(0.0,0.0,-1.0));
#87=DIRECTION('',(0.0,1.0,0.0));
#88=AXIS2_PLACEMENT_3D('',#85,#86,#87);
#89=CIRCLE('',#88,1.147999999999999);
#90=EDGE_CURVE('',#84,#84,#89,.T.);
#91=ORIENTED_EDGE('',*,*,#90,.T.);
#92=EDGE_LOOP('',(#91));
#93=FACE_OUTER_BOUND('',#92,.T.);
#94=CARTESIAN_POINT('',(0.816025403784437,-0.586602540378444,-0.194499999999996));
#95=VERTEX_POINT('',#94);
#96=CARTESIAN_POINT('',(0.866025403784438,-0.500000000000000,-0.194499999999996));
#97=DIRECTION('',(1.530758E-017,2.651351E-017,-1.0));
#98=DIRECTION('',(0.500000000000000,0.866025403784438,3.061516E-017));
#99=AXIS2_PLACEMENT_3D('',#96,#97,#98);
#100=CIRCLE('',#99,0.100000000000000);
#101=EDGE_CURVE('',#95,#95,#100,.T.);
#102=ORIENTED_EDGE('',*,*,#101,.F.);
#103=EDGE_LOOP('',(#102));
#104=FACE_BOUND('',#103,.T.);
#105=CARTESIAN_POINT('',(0.0,0.735000000000000,-0.194499999999996));
#106=VERTEX_POINT('',#105);
#107=CARTESIAN_POINT('',(0.0,0.0,-0.194499999999996));
#108=DIRECTION('',(0.0,0.0,-1.0));
#109=DIRECTION('',(0.0,1.0,0.0));
#110=AXIS2_PLACEMENT_3D('',#107,#108,#109);
#111=CIRCLE('',#110,0.735000000000000);
#112=EDGE_CURVE('',#106,#106,#111,.T.);
#113=ORIENTED_EDGE('',*,*,#112,.F.);
#114=EDGE_LOOP('',(#113));
#115=FACE_BOUND('',#114,.T.);
#116=CARTESIAN_POINT('',(0.100000000000000,0.999999999999999,-0.194499999999996));
#117=VERTEX_POINT('',#116);
#118=CARTESIAN_POINT('',(0.0,1.0,-0.194499999999996));
#119=DIRECTION('',(0.0,0.0,-1.0));
#120=DIRECTION('',(-1.0,0.0,0.0));
#121=AXIS2_PLACEMENT_3D('',#118,#119,#120);
#122=CIRCLE('',#121,0.099999999999999);
#123=EDGE_CURVE('',#117,#117,#122,.T.);
#124=ORIENTED_EDGE('',*,*,#123,.F.);
#125=EDGE_LOOP('',(#124));
#126=FACE_BOUND('',#125,.T.);
#127=ORIENTED_EDGE('',*,*,#73,.F.);
#128=EDGE_LOOP('',(#127));
#129=FACE_BOUND('',#128,.T.);
#130=ADVANCED_FACE('',(#93,#104,#115,#126,#129),#82,.T.);
#131=CARTESIAN_POINT('',(-0.866025403784439,-0.499999999999999,-0.194499999999996));
#132=DIRECTION('',(0.0,0.0,1.0));
#133=DIRECTION('',(-0.500000000000000,0.866025403784439,0.0));
#134=AXIS2_PLACEMENT_3D('',#131,#132,#133);
#135=CYLINDRICAL_SURFACE('',#134,0.086000000000000);
#136=CARTESIAN_POINT('',(-0.823025403784440,-0.574478184725461,0.166500000000004));
#137=VERTEX_POINT('',#136);
#138=CARTESIAN_POINT('',(-0.866025403784439,-0.499999999999999,0.166500000000004));
#139=DIRECTION('',(0.0,0.0,-1.000000000000000));
#140=DIRECTION('',(-0.500000000000000,0.866025403784439,0.0));
#141=AXIS2_PLACEMENT_3D('',#138,#139,#140);
#142=CIRCLE('',#141,0.086000000000000);
#143=EDGE_CURVE('',#137,#137,#142,.T.);
#144=ORIENTED_EDGE('',*,*,#143,.F.);
#145=EDGE_LOOP('',(#144));
#146=FACE_OUTER_BOUND('',#145,.T.);
#147=ORIENTED_EDGE('',*,*,#62,.F.);
#148=EDGE_LOOP('',(#147));
#149=FACE_BOUND('',#148,.T.);
#150=ADVANCED_FACE('',(#146,#149),#135,.F.);
#151=CARTESIAN_POINT('',(0.866025403784438,-0.500000000000000,-0.187499999999996));
#152=DIRECTION('',(0.0,0.0,-1.0));
#153=DIRECTION('',(0.500000000000001,0.866025403784438,1.645976E-017));
#154=AXIS2_PLACEMENT_3D('',#151,#152,#153);
#155=CONICAL_SURFACE('',#154,0.093000000000000,45.000000000000789);
#156=CARTESIAN_POINT('',(0.823025403784437,-0.574478184725462,-0.180499999999996));
#157=VERTEX_POINT('',#156);
#158=CARTESIAN_POINT('',(0.866025403784438,-0.500000000000000,-0.180499999999996));
#159=DIRECTION('',(0.0,0.0,1.0));
#160=DIRECTION('',(0.500000000000000,0.866025403784438,0.0));
#161=AXIS2_PLACEMENT_3D('',#158,#159,#160);
#162=CIRCLE('',#161,0.086000000000000);
#163=EDGE_CURVE('',#157,#157,#162,.T.);
#164=ORIENTED_EDGE('',*,*,#163,.T.);
#165=EDGE_LOOP('',(#164));
#166=FACE_OUTER_BOUND('',#165,.T.);
#167=ORIENTED_EDGE('',*,*,#101,.T.);
#168=EDGE_LOOP('',(#167));
#169=FACE_BOUND('',#168,.T.);
#170=ADVANCED_FACE('',(#166,#169),#155,.F.);
#171=CARTESIAN_POINT('',(0.866025403784438,-0.500000000000000,-0.194499999999996));
#172=DIRECTION('',(0.0,0.0,1.0));
#173=DIRECTION('',(-0.500000000000000,-0.866025403784438,0.0));
#174=AXIS2_PLACEMENT_3D('',#171,#172,#173);
#175=CYLINDRICAL_SURFACE('',#174,0.086000000000000);
#176=CARTESIAN_POINT('',(0.909025403784437,-0.425521815274538,0.166500000000004));
#177=VERTEX_POINT('',#176);
#178=CARTESIAN_POINT('',(0.866025403784438,-0.500000000000000,0.166500000000004));
#179=DIRECTION('',(0.0,0.0,-1.0));
#180=DIRECTION('',(-0.500000000000000,-0.866025403784438,0.0));
#181=AXIS2_PLACEMENT_3D('',#178,#179,#180);
#182=CIRCLE('',#181,0.086000000000000);
#183=EDGE_CURVE('',#177,#177,#182,.T.);
#184=ORIENTED_EDGE('',*,*,#183,.F.);
#185=EDGE_LOOP('',(#184));
#186=FACE_OUTER_BOUND('',#185,.T.);
#187=ORIENTED_EDGE('',*,*,#163,.F.);
#188=EDGE_LOOP('',(#187));
#189=FACE_BOUND('',#188,.T.);
#190=ADVANCED_FACE('',(#186,#189),#175,.F.);
#191=CARTESIAN_POINT('',(0.0,1.0,-0.187499999999996));
#192=DIRECTION('',(0.0,0.0,-1.0));
#193=DIRECTION('',(-1.0,0.0,0.0));
#194=AXIS2_PLACEMENT_3D('',#191,#192,#193);
#195=CONICAL_SURFACE('',#194,0.093000000000000,44.999999999998664);
#196=CARTESIAN_POINT('',(0.086000000000000,0.999999999999999,-0.180499999999996));
#197=VERTEX_POINT('',#196);
#198=CARTESIAN_POINT('',(0.0,1.0,-0.180499999999996));
#199=DIRECTION('',(0.0,0.0,1.0));
#200=DIRECTION('',(-1.0,0.0,0.0));
#201=AXIS2_PLACEMENT_3D('',#198,#199,#200);
#202=CIRCLE('',#201,0.086000000000000);
#203=EDGE_CURVE('',#197,#197,#202,.T.);
#204=ORIENTED_EDGE('',*,*,#203,.T.);
#205=EDGE_LOOP('',(#204));
#206=FACE_OUTER_BOUND('',#205,.T.);
#207=ORIENTED_EDGE('',*,*,#123,.T.);
#208=EDGE_LOOP('',(#207));
#209=FACE_BOUND('',#208,.T.);
#210=ADVANCED_FACE('',(#206,#209),#195,.F.);
#211=CARTESIAN_POINT('',(0.0,1.0,-0.194499999999996));
#212=DIRECTION('',(0.0,0.0,1.0));
#213=DIRECTION('',(1.0,0.0,0.0));
#214=AXIS2_PLACEMENT_3D('',#211,#212,#213);
#215=CYLINDRICAL_SURFACE('',#214,0.086000000000000);
#216=CARTESIAN_POINT('',(-0.086000000000000,0.999999999999999,0.166500000000004));
#217=VERTEX_POINT('',#216);
#218=CARTESIAN_POINT('',(0.0,1.0,0.166500000000004));
#219=DIRECTION('',(0.0,0.0,-1.0));
#220=DIRECTION('',(1.0,0.0,0.0));
#221=AXIS2_PLACEMENT_3D('',#218,#219,#220);
#222=CIRCLE('',#221,0.086000000000000);
#223=EDGE_CURVE('',#217,#217,#222,.T.);
#224=ORIENTED_EDGE('',*,*,#223,.F.);
#225=EDGE_LOOP('',(#224));
#226=FACE_OUTER_BOUND('',#225,.T.);
#227=ORIENTED_EDGE('',*,*,#203,.F.);
#228=EDGE_LOOP('',(#227));
#229=FACE_BOUND('',#228,.T.);
#230=ADVANCED_FACE('',(#226,#229),#215,.F.);
#231=CARTESIAN_POINT('',(0.866025403784438,-0.500000000000000,0.173500000000004));
#232=DIRECTION('',(0.0,0.0,1.0));
#233=DIRECTION('',(-0.500000000000001,-0.866025403784438,-1.645976E-017));
#234=AXIS2_PLACEMENT_3D('',#231,#232,#233);
#235=CONICAL_SURFACE('',#234,0.093000000000000,44.999999999998700);
#236=ORIENTED_EDGE('',*,*,#183,.T.);
#237=EDGE_LOOP('',(#236));
#238=FACE_OUTER_BOUND('',#237,.T.);
#239=CARTESIAN_POINT('',(0.916025403784437,-0.413397459621557,0.180500000000004));
#240=VERTEX_POINT('',#239);
#241=CARTESIAN_POINT('',(0.866025403784438,-0.500000000000000,0.180500000000004));
#242=DIRECTION('',(-1.530758E-017,-2.651351E-017,1.0));
#243=DIRECTION('',(-0.500000000000000,-0.866025403784438,-3.061516E-017));
#244=AXIS2_PLACEMENT_3D('',#241,#242,#243);
#245=CIRCLE('',#244,0.100000000000000);
#246=EDGE_CURVE('',#240,#240,#245,.T.);
#247=ORIENTED_EDGE('',*,*,#246,.T.);
#248=EDGE_LOOP('',(#247));
#249=FACE_BOUND('',#248,.T.);
#250=ADVANCED_FACE('',(#238,#249),#235,.F.);
#251=CARTESIAN_POINT('',(0.0,1.004000000000000,0.180500000000004));
#252=DIRECTION('',(0.0,0.0,1.0));
#253=DIRECTION('',(1.0,0.0,0.0));
#254=AXIS2_PLACEMENT_3D('',#251,#252,#253);
#255=PLANE('',#254);
#256=CARTESIAN_POINT('',(0.0,1.147999999999999,0.180500000000004));
#257=VERTEX_POINT('',#256);
#258=CARTESIAN_POINT('',(0.0,0.0,0.180500000000004));
#259=DIRECTION('',(0.0,0.0,-1.0));
#260=DIRECTION('',(0.0,1.0,0.0));
#261=AXIS2_PLACEMENT_3D('',#258,#259,#260);
#262=CIRCLE('',#261,1.147999999999999);
#263=EDGE_CURVE('',#257,#257,#262,.T.);
#264=ORIENTED_EDGE('',*,*,#263,.F.);
#265=EDGE_LOOP('',(#264));
#266=FACE_OUTER_BOUND('',#265,.T.);
#267=CARTESIAN_POINT('',(-0.816025403784440,-0.586602540378443,0.180500000000004));
#268=VERTEX_POINT('',#267);
#269=CARTESIAN_POINT('',(-0.866025403784439,-0.499999999999999,0.180500000000004));
#270=DIRECTION('',(-1.530758E-017,2.651351E-017,1.0));
#271=DIRECTION('',(-0.500000000000000,0.866025403784439,-3.061516E-017));
#272=AXIS2_PLACEMENT_3D('',#269,#270,#271);
#273=CIRCLE('',#272,0.100000000000000);
#274=EDGE_CURVE('',#268,#268,#273,.T.);
#275=ORIENTED_EDGE('',*,*,#274,.F.);
#276=EDGE_LOOP('',(#275));
#277=FACE_BOUND('',#276,.T.);
#278=CARTESIAN_POINT('',(0.0,0.860000000000001,0.180500000000004));
#279=VERTEX_POINT('',#278);
#280=CARTESIAN_POINT('',(0.0,0.0,0.180500000000004));
#281=DIRECTION('',(0.0,0.0,-1.0));
#282=DIRECTION('',(0.0,1.0,0.0));
#283=AXIS2_PLACEMENT_3D('',#280,#281,#282);
#284=CIRCLE('',#283,0.860000000000001);
#285=EDGE_CURVE('',#279,#279,#284,.T.);
#286=ORIENTED_EDGE('',*,*,#285,.T.);
#287=EDGE_LOOP('',(#286));
#288=FACE_BOUND('',#287,.T.);
#289=CARTESIAN_POINT('',(-0.100000000000000,0.999999999999999,0.180500000000004));
#290=VERTEX_POINT('',#289);
#291=CARTESIAN_POINT('',(0.0,1.0,0.180500000000004));
#292=DIRECTION('',(0.0,0.0,1.0));
#293=DIRECTION('',(1.0,0.0,0.0));
#294=AXIS2_PLACEMENT_3D('',#291,#292,#293);
#295=CIRCLE('',#294,0.099999999999999);
#296=EDGE_CURVE('',#290,#290,#295,.T.);
#297=ORIENTED_EDGE('',*,*,#296,.F.);
#298=EDGE_LOOP('',(#297));
#299=FACE_BOUND('',#298,.T.);
#300=ORIENTED_EDGE('',*,*,#246,.F.);
#301=EDGE_LOOP('',(#300));
#302=FACE_BOUND('',#301,.T.);
#303=ADVANCED_FACE('',(#266,#277,#288,#299,#302),#255,.T.);
#304=CARTESIAN_POINT('',(-0.866025403784439,-0.499999999999999,0.173500000000004));
#305=DIRECTION('',(0.0,0.0,1.0));
#306=DIRECTION('',(-0.500000000000000,0.866025403784439,-1.645976E-017));
#307=AXIS2_PLACEMENT_3D('',#304,#305,#306);
#308=CONICAL_SURFACE('',#307,0.093000000000000,45.000000000000085);
#309=ORIENTED_EDGE('',*,*,#143,.T.);
#310=EDGE_LOOP('',(#309));
#311=FACE_OUTER_BOUND('',#310,.T.);
#312=ORIENTED_EDGE('',*,*,#274,.T.);
#313=EDGE_LOOP('',(#312));
#314=FACE_BOUND('',#313,.T.);
#315=ADVANCED_FACE('',(#311,#314),#308,.F.);
#316=CARTESIAN_POINT('',(0.0,1.0,0.173500000000004));
#317=DIRECTION('',(0.0,0.0,1.0));
#318=DIRECTION('',(1.0,0.0,0.0));
#319=AXIS2_PLACEMENT_3D('',#316,#317,#318);
#320=CONICAL_SURFACE('',#319,0.093000000000000,44.999999999998643);
#321=ORIENTED_EDGE('',*,*,#223,.T.);
#322=EDGE_LOOP('',(#321));
#323=FACE_OUTER_BOUND('',#322,.T.);
#324=ORIENTED_EDGE('',*,*,#296,.T.);
#325=EDGE_LOOP('',(#324));
#326=FACE_BOUND('',#325,.T.);
#327=ADVANCED_FACE('',(#323,#326),#320,.F.);
#328=CARTESIAN_POINT('',(0.0,0.0,0.101500000000003));
#329=DIRECTION('',(6.123032E-017,0.0,-1.0));
#330=DIRECTION('',(0.0,1.0,0.0));
#331=AXIS2_PLACEMENT_3D('',#328,#329,#330);
#332=CYLINDRICAL_SURFACE('',#331,0.842000000000001);
#333=CARTESIAN_POINT('',(0.0,0.842000000000001,0.162500000000003));
#334=VERTEX_POINT('',#333);
#335=CARTESIAN_POINT('',(0.0,0.0,0.162500000000003));
#336=DIRECTION('',(0.0,0.0,-1.0));
#337=DIRECTION('',(0.0,1.0,0.0));
#338=AXIS2_PLACEMENT_3D('',#335,#336,#337);
#339=CIRCLE('',#338,0.842000000000001);
#340=EDGE_CURVE('',#334,#334,#339,.T.);
#341=ORIENTED_EDGE('',*,*,#340,.F.);
#342=EDGE_LOOP('',(#341));
#343=FACE_OUTER_BOUND('',#342,.T.);
#344=CARTESIAN_POINT('',(0.0,0.842000000000001,0.040500000000003));
#345=VERTEX_POINT('',#344);
#346=CARTESIAN_POINT('',(0.0,0.0,0.040500000000003));
#347=DIRECTION('',(0.0,0.0,-1.0));
#348=DIRECTION('',(0.0,1.0,0.0));
#349=AXIS2_PLACEMENT_3D('',#346,#347,#348);
#350=CIRCLE('',#349,0.842000000000001);
#351=EDGE_CURVE('',#345,#345,#350,.T.);
#352=ORIENTED_EDGE('',*,*,#351,.T.);
#353=EDGE_LOOP('',(#352));
#354=FACE_BOUND('',#353,.T.);
#355=ADVANCED_FACE('',(#343,#354),#332,.F.);
#356=CARTESIAN_POINT('',(0.0,0.0,0.171500000000004));
#357=DIRECTION('',(-6.123032E-017,0.0,1.0));
#358=DIRECTION('',(0.0,1.0,0.0));
#359=AXIS2_PLACEMENT_3D('',#356,#357,#358);
#360=CONICAL_SURFACE('',#359,0.851000000000001,44.999999999998586);
#361=ORIENTED_EDGE('',*,*,#285,.F.);
#362=EDGE_LOOP('',(#361));
#363=FACE_OUTER_BOUND('',#362,.T.);
#364=ORIENTED_EDGE('',*,*,#340,.T.);
#365=EDGE_LOOP('',(#364));
#366=FACE_BOUND('',#365,.T.);
#367=ADVANCED_FACE('',(#363,#366),#360,.F.);
#368=CARTESIAN_POINT('',(0.0,0.0,0.170500000000004));
#369=DIRECTION('',(6.123032E-017,0.0,-1.0));
#370=DIRECTION('',(0.0,1.0,0.0));
#371=AXIS2_PLACEMENT_3D('',#368,#369,#370);
#372=CONICAL_SURFACE('',#371,1.157999999999999,45.000000000000007);
#373=CARTESIAN_POINT('',(0.0,1.167999999999999,0.160500000000004));
#374=VERTEX_POINT('',#373);
#375=CARTESIAN_POINT('',(0.0,0.0,0.160500000000004));
#376=DIRECTION('',(0.0,0.0,-1.0));
#377=DIRECTION('',(0.0,1.0,0.0));
#378=AXIS2_PLACEMENT_3D('',#375,#376,#377);
#379=CIRCLE('',#378,1.167999999999999);
#380=EDGE_CURVE('',#374,#374,#379,.T.);
#381=ORIENTED_EDGE('',*,*,#380,.F.);
#382=EDGE_LOOP('',(#381));
#383=FACE_OUTER_BOUND('',#382,.T.);
#384=ORIENTED_EDGE('',*,*,#263,.T.);
#385=EDGE_LOOP('',(#384));
#386=FACE_BOUND('',#385,.T.);
#387=ADVANCED_FACE('',(#383,#386),#372,.T.);
#388=CARTESIAN_POINT('',(0.0,0.0,-0.006999999999996));
#389=DIRECTION('',(6.123032E-017,0.0,-1.0));
#390=DIRECTION('',(0.0,1.0,0.0));
#391=AXIS2_PLACEMENT_3D('',#388,#389,#390);
#392=CYLINDRICAL_SURFACE('',#391,1.167999999999999);
#393=CARTESIAN_POINT('',(0.0,1.167999999999999,-0.174499999999997));
#394=VERTEX_POINT('',#393);
#395=CARTESIAN_POINT('',(0.0,0.0,-0.174499999999997));
#396=DIRECTION('',(0.0,0.0,-1.0));
#397=DIRECTION('',(0.0,1.0,0.0));
#398=AXIS2_PLACEMENT_3D('',#395,#396,#397);
#399=CIRCLE('',#398,1.167999999999999);
#400=EDGE_CURVE('',#394,#394,#399,.T.);
#401=ORIENTED_EDGE('',*,*,#400,.F.);
#402=EDGE_LOOP('',(#401));
#403=FACE_OUTER_BOUND('',#402,.T.);
#404=ORIENTED_EDGE('',*,*,#380,.T.);
#405=EDGE_LOOP('',(#404));
#406=FACE_BOUND('',#405,.T.);
#407=ADVANCED_FACE('',(#403,#406),#392,.T.);
#408=CARTESIAN_POINT('',(0.0,0.0,-0.184499999999996));
#409=DIRECTION('',(-6.123032E-017,0.0,1.0));
#410=DIRECTION('',(0.0,1.0,0.0));
#411=AXIS2_PLACEMENT_3D('',#408,#409,#410);
#412=CONICAL_SURFACE('',#411,1.157999999999999,45.000000000000007);
#413=ORIENTED_EDGE('',*,*,#90,.F.);
#414=EDGE_LOOP('',(#413));
#415=FACE_OUTER_BOUND('',#414,.T.);
#416=ORIENTED_EDGE('',*,*,#400,.T.);
#417=EDGE_LOOP('',(#416));
#418=FACE_BOUND('',#417,.T.);
#419=ADVANCED_FACE('',(#415,#418),#412,.T.);
#420=CARTESIAN_POINT('',(0.0,0.0,-0.174249999999995));
#421=DIRECTION('',(6.123032E-017,0.0,-1.0));
#422=DIRECTION('',(0.0,1.0,0.0));
#423=AXIS2_PLACEMENT_3D('',#420,#421,#422);
#424=CONICAL_SURFACE('',#423,0.714750000000000,45.000000000000007);
#425=CARTESIAN_POINT('',(0.0,0.694499999999999,-0.153999999999995));
#426=VERTEX_POINT('',#425);
#427=CARTESIAN_POINT('',(0.0,0.0,-0.153999999999995));
#428=DIRECTION('',(0.0,0.0,-1.0));
#429=DIRECTION('',(0.0,1.0,0.0));
#430=AXIS2_PLACEMENT_3D('',#427,#428,#429);
#431=CIRCLE('',#430,0.694499999999999);
#432=EDGE_CURVE('',#426,#426,#431,.T.);
#433=ORIENTED_EDGE('',*,*,#432,.F.);
#434=EDGE_LOOP('',(#433));
#435=FACE_OUTER_BOUND('',#434,.T.);
#436=ORIENTED_EDGE('',*,*,#112,.T.);
#437=EDGE_LOOP('',(#436));
#438=FACE_BOUND('',#437,.T.);
#439=ADVANCED_FACE('',(#435,#438),#424,.F.);
#440=CARTESIAN_POINT('',(0.0,0.0,-0.076999999999996));
#441=DIRECTION('',(6.123032E-017,0.0,-1.0));
#442=DIRECTION('',(0.0,1.0,0.0));
#443=AXIS2_PLACEMENT_3D('',#440,#441,#442);
#444=CYLINDRICAL_SURFACE('',#443,0.694500000000000);
#445=CARTESIAN_POINT('',(0.0,0.694500000000000,0.0));
#446=VERTEX_POINT('',#445);
#447=CARTESIAN_POINT('',(0.0,0.0,0.0));
#448=DIRECTION('',(0.0,0.0,-1.0));
#449=DIRECTION('',(0.0,1.0,0.0));
#450=AXIS2_PLACEMENT_3D('',#447,#448,#449);
#451=CIRCLE('',#450,0.694500000000000);
#452=EDGE_CURVE('',#446,#446,#451,.T.);
#453=ORIENTED_EDGE('',*,*,#452,.F.);
#454=EDGE_LOOP('',(#453));
#455=FACE_OUTER_BOUND('',#454,.T.);
#456=ORIENTED_EDGE('',*,*,#432,.T.);
#457=EDGE_LOOP('',(#456));
#458=FACE_BOUND('',#457,.T.);
#459=ADVANCED_FACE('',(#455,#458),#444,.F.);
#460=CARTESIAN_POINT('',(0.0,0.0,0.020250000000003));
#461=DIRECTION('',(-6.123032E-017,0.0,1.0));
#462=DIRECTION('',(0.0,1.0,0.0));
#463=AXIS2_PLACEMENT_3D('',#460,#461,#462);
#464=CONICAL_SURFACE('',#463,0.714750000000001,44.999999999998742);
#465=CARTESIAN_POINT('',(0.0,0.735000000000001,0.040500000000003));
#466=VERTEX_POINT('',#465);
#467=CARTESIAN_POINT('',(0.0,0.0,0.040500000000003));
#468=DIRECTION('',(0.0,0.0,-1.0));
#469=DIRECTION('',(0.0,1.0,0.0));
#470=AXIS2_PLACEMENT_3D('',#467,#468,#469);
#471=CIRCLE('',#470,0.735000000000001);
#472=EDGE_CURVE('',#466,#466,#471,.T.);
#473=ORIENTED_EDGE('',*,*,#472,.F.);
#474=EDGE_LOOP('',(#473));
#475=FACE_OUTER_BOUND('',#474,.T.);
#476=ORIENTED_EDGE('',*,*,#452,.T.);
#477=EDGE_LOOP('',(#476));
#478=FACE_BOUND('',#477,.T.);
#479=ADVANCED_FACE('',(#475,#478),#464,.F.);
#480=CARTESIAN_POINT('',(0.0,0.788500000000001,0.040500000000003));
#481=DIRECTION('',(0.0,0.0,1.0));
#482=DIRECTION('',(1.0,0.0,0.0));
#483=AXIS2_PLACEMENT_3D('',#480,#481,#482);
#484=PLANE('',#483);
#485=ORIENTED_EDGE('',*,*,#351,.F.);
#486=EDGE_LOOP('',(#485));
#487=FACE_OUTER_BOUND('',#486,.T.);
#488=ORIENTED_EDGE('',*,*,#472,.T.);
#489=EDGE_LOOP('',(#488));
#490=FACE_BOUND('',#489,.T.);
#491=ADVANCED_FACE('',(#487,#490),#484,.T.);
#492=CLOSED_SHELL('',(#77,#130,#150,#170,#190,#210,#230,#250,#303,#315,#327,#355,#367,#387,#407,#419,#439,#459,#479,#491));
#493=MANIFOLD_SOLID_BREP('',#492);
#494=COLOUR_RGB('Default',0.752941012382507,0.752941012382507,0.752941012382507);
#495=FILL_AREA_STYLE_COLOUR('Default',#494);
#496=FILL_AREA_STYLE('Default',(#495));
#497=SURFACE_STYLE_FILL_AREA(#496);
#498=SURFACE_SIDE_STYLE('Default',(#497));
#499=SURFACE_STYLE_USAGE(.BOTH.,#498);
#500=PRESENTATION_STYLE_ASSIGNMENT((#499));
#501=STYLED_ITEM('',(#500),#493);
#502=MECHANICAL_DESIGN_GEOMETRIC_PRESENTATION_REPRESENTATION('',(#501),#42);
#503=ADVANCED_BREP_SHAPE_REPRESENTATION('ABSR',(#493),#42);
#504=SHAPE_REPRESENTATION_RELATIONSHIP('SRR','None',#503,#47);
ENDSEC;
END-ISO-10303-21;
