ISO-10303-21;
HEADER;
/****************************************************************
 * Generated by software with PDE/Lib inside                    *
 * PDElib Version v51a, created Tue 12/06/2005                  *
 * International Technegroup Inc. (www.iti-oh.com)              *
 ****************************************************************/
FILE_DESCRIPTION((''),'2;1');
FILE_NAME('C:\\Documents and Settings\\JC.DESIGN\\Desktop\\Transfer File\\Web files from Annette\\IS-GCI\\is-gci.stp','2011-05-10T07:25:30',('JC'),(''),'Autodesk Inventor 11','Autodesk Inventor 11','');
FILE_SCHEMA(('AUTOMOTIVE_DESIGN { 1 0 10303 214 1 1 1 1 }'));
ENDSEC;
DATA;
#5=APPLICATION_CONTEXT('automotive design');
#6=APPLICATION_PROTOCOL_DEFINITION('Draft International Standard','automotive_design',1998,#5);
#7=PRODUCT_CONTEXT('None',#5,'mechanical');
#8=PRODUCT('is-gci1','is-gci1','None',(#7));
#9=PRODUCT_RELATED_PRODUCT_CATEGORY('part','description',(#8));
#10=PRODUCT_DEFINITION_FORMATION('None','None',#8);
#11=PRODUCT_DEFINITION_CONTEXT('part definition',#5,'design');
#12=PRODUCT_DEFINITION('None','None',#10,#11);
#18=(NAMED_UNIT(*)PLANE_ANGLE_UNIT()SI_UNIT($,.RADIAN.));
#19=DIMENSIONAL_EXPONENTS(0.0,0.0,0.0,0.0,0.0,0.0,0.0);
#20=PLANE_ANGLE_MEASURE_WITH_UNIT(PLANE_ANGLE_MEASURE(0.017453292500000),#18);
#24=(CONVERSION_BASED_UNIT('DEGREE',#20)NAMED_UNIT(#19)PLANE_ANGLE_UNIT());
#28=(NAMED_UNIT(*)SI_UNIT($,.STERADIAN.)SOLID_ANGLE_UNIT());
#32=(LENGTH_UNIT()NAMED_UNIT(*)SI_UNIT(.CENTI.,.METRE.));
#33=DIMENSIONAL_EXPONENTS(1.0,0.0,0.0,0.0,0.0,0.0,0.0);
#34=LENGTH_MEASURE_WITH_UNIT(LENGTH_MEASURE(2.540000000000000),#32);
#38=(CONVERSION_BASED_UNIT('INCH',#34)LENGTH_UNIT()NAMED_UNIT(#33));
#40=UNCERTAINTY_MEASURE_WITH_UNIT(LENGTH_MEASURE(0.000393700787402),#38,'DISTANCE_ACCURACY_VALUE','');
#42=(GEOMETRIC_REPRESENTATION_CONTEXT(3)GLOBAL_UNCERTAINTY_ASSIGNED_CONTEXT((#40))GLOBAL_UNIT_ASSIGNED_CONTEXT((#24,#28,#38))REPRESENTATION_CONTEXT('None','None'));
#43=AXIS2_PLACEMENT_3D('',#44,#45,#46);
#44=CARTESIAN_POINT('',(0.0,0.0,0.0));
#45=DIRECTION('',(0.0,0.0,1.0));
#46=DIRECTION('',(1.0,0.0,0.0));
#47=SHAPE_REPRESENTATION('',(#43),#42);
#48=PRODUCT_DEFINITION_SHAPE('','',#12);
#49=SHAPE_DEFINITION_REPRESENTATION(#48,#47);
#50=CARTESIAN_POINT('',(-0.506250000000001,0.0,0.354999999999997));
#51=DIRECTION('',(0.0,0.0,-1.0));
#52=DIRECTION('',(-1.0,0.0,0.0));
#53=AXIS2_PLACEMENT_3D('',#50,#51,#52);
#54=PLANE('',#53);
#55=CARTESIAN_POINT('',(-0.506250000000001,0.0,0.354999999999997));
#56=VERTEX_POINT('',#55);
#57=CARTESIAN_POINT('',(0.0,-6.697066E-018,0.354999999999997));
#58=DIRECTION('',(0.0,0.0,1.0));
#59=DIRECTION('',(-1.0,0.0,0.0));
#60=AXIS2_PLACEMENT_3D('',#57,#58,#59);
#61=CIRCLE('',#60,0.506250000000001);
#62=EDGE_CURVE('',#56,#56,#61,.T.);
#63=ORIENTED_EDGE('',*,*,#62,.F.);
#64=EDGE_LOOP('',(#63));
#65=FACE_OUTER_BOUND('',#64,.T.);
#66=CARTESIAN_POINT('',(-2.092542E-015,0.299663811628962,0.354999999999997));
#67=VERTEX_POINT('',#66);
#68=CARTESIAN_POINT('',(0.0,-4.602080E-017,0.354999999999997));
#69=DIRECTION('',(0.0,0.0,-1.0));
#70=DIRECTION('',(0.0,-1.0,0.0));
#71=AXIS2_PLACEMENT_3D('',#68,#69,#70);
#72=CIRCLE('',#71,0.299663811628962);
#73=EDGE_CURVE('',#67,#67,#72,.T.);
#74=ORIENTED_EDGE('',*,*,#73,.F.);
#75=EDGE_LOOP('',(#74));
#76=FACE_BOUND('',#75,.T.);
#77=ADVANCED_FACE('',(#65,#76),#54,.T.);
#78=CARTESIAN_POINT('',(0.0,0.0,0.774699999999999));
#79=DIRECTION('',(0.0,1.0,0.0));
#80=DIRECTION('',(1.0,0.0,0.0));
#81=AXIS2_PLACEMENT_3D('',#78,#79,#80);
#82=SPHERICAL_SURFACE('',#81,0.515700000000000);
#83=ORIENTED_EDGE('',*,*,#73,.T.);
#84=EDGE_LOOP('',(#83));
#85=FACE_OUTER_BOUND('',#84,.T.);
#86=ADVANCED_FACE('',(#85),#82,.T.);
#87=CARTESIAN_POINT('',(0.0,0.0,0.377500000000001));
#88=DIRECTION('',(0.0,-3.061516E-016,-1.0));
#89=DIRECTION('',(-1.0,0.0,0.0));
#90=AXIS2_PLACEMENT_3D('',#87,#88,#89);
#91=CYLINDRICAL_SURFACE('',#90,0.716000000000000);
#92=CARTESIAN_POINT('',(-0.716000000000001,0.0,0.035000000000002));
#93=VERTEX_POINT('',#92);
#94=CARTESIAN_POINT('',(0.0,0.0,0.035000000000002));
#95=DIRECTION('',(0.0,0.0,-1.0));
#96=DIRECTION('',(-1.0,0.0,0.0));
#97=AXIS2_PLACEMENT_3D('',#94,#95,#96);
#98=CIRCLE('',#97,0.716000000000001);
#99=EDGE_CURVE('',#93,#93,#98,.T.);
#100=ORIENTED_EDGE('',*,*,#99,.F.);
#101=EDGE_LOOP('',(#100));
#102=FACE_OUTER_BOUND('',#101,.T.);
#103=CARTESIAN_POINT('',(-0.716000000000001,0.0,0.720000000000001));
#104=VERTEX_POINT('',#103);
#105=CARTESIAN_POINT('',(0.0,0.0,0.720000000000001));
#106=DIRECTION('',(0.0,0.0,1.0));
#107=DIRECTION('',(-1.0,0.0,0.0));
#108=AXIS2_PLACEMENT_3D('',#105,#106,#107);
#109=CIRCLE('',#108,0.716000000000000);
#110=EDGE_CURVE('',#104,#104,#109,.T.);
#111=ORIENTED_EDGE('',*,*,#110,.F.);
#112=EDGE_LOOP('',(#111));
#113=FACE_BOUND('',#112,.T.);
#114=ADVANCED_FACE('',(#102,#113),#91,.T.);
#115=CARTESIAN_POINT('',(0.0,0.0,0.017500000000002));
#116=DIRECTION('',(0.0,3.061516E-016,1.0));
#117=DIRECTION('',(-1.0,0.0,0.0));
#118=AXIS2_PLACEMENT_3D('',#115,#116,#117);
#119=CONICAL_SURFACE('',#118,0.698500000000001,45.000000000000007);
#120=CARTESIAN_POINT('',(-0.681000000000001,0.0,1.776357E-015));
#121=VERTEX_POINT('',#120);
#122=CARTESIAN_POINT('',(0.0,0.0,1.776357E-015));
#123=DIRECTION('',(0.0,0.0,-1.0));
#124=DIRECTION('',(-1.0,0.0,0.0));
#125=AXIS2_PLACEMENT_3D('',#122,#123,#124);
#126=CIRCLE('',#125,0.681000000000001);
#127=EDGE_CURVE('',#121,#121,#126,.T.);
#128=ORIENTED_EDGE('',*,*,#127,.F.);
#129=EDGE_LOOP('',(#128));
#130=FACE_OUTER_BOUND('',#129,.T.);
#131=ORIENTED_EDGE('',*,*,#99,.T.);
#132=EDGE_LOOP('',(#131));
#133=FACE_BOUND('',#132,.T.);
#134=ADVANCED_FACE('',(#130,#133),#119,.T.);
#135=CARTESIAN_POINT('',(-0.610500000000002,0.0,0.0));
#136=DIRECTION('',(0.0,0.0,-1.0));
#137=DIRECTION('',(0.0,1.0,0.0));
#138=AXIS2_PLACEMENT_3D('',#135,#136,#137);
#139=PLANE('',#138);
#140=ORIENTED_EDGE('',*,*,#127,.T.);
#141=EDGE_LOOP('',(#140));
#142=FACE_OUTER_BOUND('',#141,.T.);
#143=CARTESIAN_POINT('',(-0.539999999999999,0.0,0.0));
#144=VERTEX_POINT('',#143);
#145=CARTESIAN_POINT('',(0.0,0.0,0.0));
#146=DIRECTION('',(0.0,0.0,-1.0));
#147=DIRECTION('',(-1.0,0.0,0.0));
#148=AXIS2_PLACEMENT_3D('',#145,#146,#147);
#149=CIRCLE('',#148,0.540000000000000);
#150=EDGE_CURVE('',#144,#144,#149,.T.);
#151=ORIENTED_EDGE('',*,*,#150,.F.);
#152=EDGE_LOOP('',(#151));
#153=FACE_BOUND('',#152,.T.);
#154=ADVANCED_FACE('',(#142,#153),#139,.T.);
#155=CARTESIAN_POINT('',(0.0,0.0,0.016875000000001));
#156=DIRECTION('',(0.0,-3.061516E-016,-1.0));
#157=DIRECTION('',(-1.0,0.0,0.0));
#158=AXIS2_PLACEMENT_3D('',#155,#156,#157);
#159=CONICAL_SURFACE('',#158,0.523125000000000,44.999999999999247);
#160=CARTESIAN_POINT('',(-0.506250000000001,0.0,0.033750000000001));
#161=VERTEX_POINT('',#160);
#162=CARTESIAN_POINT('',(0.0,0.0,0.033750000000001));
#163=DIRECTION('',(0.0,0.0,-1.0));
#164=DIRECTION('',(-1.0,0.0,0.0));
#165=AXIS2_PLACEMENT_3D('',#162,#163,#164);
#166=CIRCLE('',#165,0.506250000000000);
#167=EDGE_CURVE('',#161,#161,#166,.T.);
#168=ORIENTED_EDGE('',*,*,#167,.F.);
#169=EDGE_LOOP('',(#168));
#170=FACE_OUTER_BOUND('',#169,.T.);
#171=ORIENTED_EDGE('',*,*,#150,.T.);
#172=EDGE_LOOP('',(#171));
#173=FACE_BOUND('',#172,.T.);
#174=ADVANCED_FACE('',(#170,#173),#159,.F.);
#175=CARTESIAN_POINT('',(0.0,0.0,0.376875000000002));
#176=DIRECTION('',(0.0,-3.061516E-016,-1.0));
#177=DIRECTION('',(-1.0,0.0,0.0));
#178=AXIS2_PLACEMENT_3D('',#175,#176,#177);
#179=CYLINDRICAL_SURFACE('',#178,0.506250000000001);
#180=ORIENTED_EDGE('',*,*,#62,.T.);
#181=EDGE_LOOP('',(#180));
#182=FACE_OUTER_BOUND('',#181,.T.);
#183=ORIENTED_EDGE('',*,*,#167,.T.);
#184=EDGE_LOOP('',(#183));
#185=FACE_BOUND('',#184,.T.);
#186=ADVANCED_FACE('',(#182,#185),#179,.F.);
#187=CARTESIAN_POINT('',(-8.881784E-016,-8.881784E-016,2.250000000000002));
#188=DIRECTION('',(0.0,0.0,-1.0));
#189=DIRECTION('',(-1.0,0.0,0.0));
#190=AXIS2_PLACEMENT_3D('',#187,#188,#189);
#191=PLANE('',#190);
#192=CARTESIAN_POINT('',(0.329999999999999,2.220446E-015,2.250000000000002));
#193=VERTEX_POINT('',#192);
#194=CARTESIAN_POINT('',(0.0,0.0,2.250000000000002));
#195=DIRECTION('',(0.0,0.0,-1.0));
#196=DIRECTION('',(-1.0,0.0,0.0));
#197=AXIS2_PLACEMENT_3D('',#194,#195,#196);
#198=CIRCLE('',#197,0.329999999999999);
#199=EDGE_CURVE('',#193,#193,#198,.T.);
#200=ORIENTED_EDGE('',*,*,#199,.F.);
#201=EDGE_LOOP('',(#200));
#202=FACE_OUTER_BOUND('',#201,.T.);
#203=CARTESIAN_POINT('',(-1.776357E-015,-0.292831009286928,2.250000000000002));
#204=VERTEX_POINT('',#203);
#205=CARTESIAN_POINT('',(0.0,0.0,2.250000000000002));
#206=DIRECTION('',(0.0,0.0,1.0));
#207=DIRECTION('',(0.0,1.0,0.0));
#208=AXIS2_PLACEMENT_3D('',#205,#206,#207);
#209=CIRCLE('',#208,0.292831009286928);
#210=EDGE_CURVE('',#204,#204,#209,.T.);
#211=ORIENTED_EDGE('',*,*,#210,.F.);
#212=EDGE_LOOP('',(#211));
#213=FACE_BOUND('',#212,.T.);
#214=ADVANCED_FACE('',(#202,#213),#191,.F.);
#215=CARTESIAN_POINT('',(0.0,0.0,1.969500000000004));
#216=DIRECTION('',(0.0,-1.0,0.0));
#217=DIRECTION('',(1.0,0.0,0.0));
#218=AXIS2_PLACEMENT_3D('',#215,#216,#217);
#219=SPHERICAL_SURFACE('',#218,0.405500000000000);
#220=ORIENTED_EDGE('',*,*,#210,.T.);
#221=EDGE_LOOP('',(#220));
#222=FACE_OUTER_BOUND('',#221,.T.);
#223=ADVANCED_FACE('',(#222),#219,.T.);
#224=CARTESIAN_POINT('',(0.0,0.0,2.418778329496046));
#225=DIRECTION('',(0.0,-3.061516E-016,-1.0));
#226=DIRECTION('',(-1.0,0.0,0.0));
#227=AXIS2_PLACEMENT_3D('',#224,#225,#226);
#228=CONICAL_SURFACE('',#227,0.821221670503957,44.999999999999957);
#229=CARTESIAN_POINT('',(0.609999999999999,7.105427E-015,2.630000000000003));
#230=VERTEX_POINT('',#229);
#231=CARTESIAN_POINT('',(0.0,0.0,2.630000000000003));
#232=DIRECTION('',(0.0,0.0,-1.0));
#233=DIRECTION('',(-1.0,0.0,0.0));
#234=AXIS2_PLACEMENT_3D('',#231,#232,#233);
#235=CIRCLE('',#234,0.610000000000001);
#236=EDGE_CURVE('',#230,#230,#235,.T.);
#237=ORIENTED_EDGE('',*,*,#236,.F.);
#238=EDGE_LOOP('',(#237));
#239=FACE_OUTER_BOUND('',#238,.T.);
#240=CARTESIAN_POINT('',(-0.509999999999998,0.0,2.730000000000004));
#241=VERTEX_POINT('',#240);
#242=CARTESIAN_POINT('',(0.0,0.0,2.730000000000001));
#243=DIRECTION('',(0.0,0.0,1.0));
#244=DIRECTION('',(-1.0,0.0,0.0));
#245=AXIS2_PLACEMENT_3D('',#242,#243,#244);
#246=CIRCLE('',#245,0.510000000000001);
#247=EDGE_CURVE('',#241,#241,#246,.T.);
#248=ORIENTED_EDGE('',*,*,#247,.F.);
#249=EDGE_LOOP('',(#248));
#250=FACE_BOUND('',#249,.T.);
#251=ADVANCED_FACE('',(#239,#250),#228,.T.);
#252=CARTESIAN_POINT('',(0.0,0.0,2.265586021513940));
#253=DIRECTION('',(-4.440892E-016,-3.061516E-016,-1.0));
#254=DIRECTION('',(-1.0,0.0,0.0));
#255=AXIS2_PLACEMENT_3D('',#252,#253,#254);
#256=CYLINDRICAL_SURFACE('',#255,0.329999999999999);
#257=ORIENTED_EDGE('',*,*,#199,.T.);
#258=EDGE_LOOP('',(#257));
#259=FACE_OUTER_BOUND('',#258,.T.);
#260=CARTESIAN_POINT('',(-0.329999999999998,0.0,2.318624404762804));
#261=VERTEX_POINT('',#260);
#262=CARTESIAN_POINT('',(0.0,0.0,2.318624404762804));
#263=DIRECTION('',(0.0,0.0,-1.0));
#264=DIRECTION('',(-1.0,0.0,0.0));
#265=AXIS2_PLACEMENT_3D('',#262,#263,#264);
#266=CIRCLE('',#265,0.329999999999999);
#267=EDGE_CURVE('',#261,#261,#266,.T.);
#268=ORIENTED_EDGE('',*,*,#267,.F.);
#269=EDGE_LOOP('',(#268));
#270=FACE_BOUND('',#269,.T.);
#271=ADVANCED_FACE('',(#259,#270),#256,.F.);
#272=CARTESIAN_POINT('',(-0.386749999999999,0.0,2.318624404762804));
#273=DIRECTION('',(0.0,0.0,1.0));
#274=DIRECTION('',(0.0,-1.0,0.0));
#275=AXIS2_PLACEMENT_3D('',#272,#273,#274);
#276=PLANE('',#275);
#277=CARTESIAN_POINT('',(-0.443500000000000,0.0,2.318624404762806));
#278=VERTEX_POINT('',#277);
#279=CARTESIAN_POINT('',(0.0,0.0,2.318624404762806));
#280=DIRECTION('',(0.0,0.0,-1.0));
#281=DIRECTION('',(-1.0,0.0,0.0));
#282=AXIS2_PLACEMENT_3D('',#279,#280,#281);
#283=CIRCLE('',#282,0.443500000000001);
#284=EDGE_CURVE('',#278,#278,#283,.T.);
#285=ORIENTED_EDGE('',*,*,#284,.F.);
#286=EDGE_LOOP('',(#285));
#287=FACE_OUTER_BOUND('',#286,.T.);
#288=ORIENTED_EDGE('',*,*,#267,.T.);
#289=EDGE_LOOP('',(#288));
#290=FACE_BOUND('',#289,.T.);
#291=ADVANCED_FACE('',(#287,#290),#276,.T.);
#292=CARTESIAN_POINT('',(0.0,0.0,2.454312202381406));
#293=DIRECTION('',(-4.440892E-016,-3.061516E-016,-1.0));
#294=DIRECTION('',(-1.0,0.0,0.0));
#295=AXIS2_PLACEMENT_3D('',#292,#293,#294);
#296=CYLINDRICAL_SURFACE('',#295,0.443500000000001);
#297=CARTESIAN_POINT('',(-0.443500000000000,0.0,2.590000000000003));
#298=VERTEX_POINT('',#297);
#299=CARTESIAN_POINT('',(0.0,0.0,2.590000000000003));
#300=DIRECTION('',(0.0,0.0,-1.0));
#301=DIRECTION('',(-1.0,0.0,0.0));
#302=AXIS2_PLACEMENT_3D('',#299,#300,#301);
#303=CIRCLE('',#302,0.443500000000002);
#304=EDGE_CURVE('',#298,#298,#303,.T.);
#305=ORIENTED_EDGE('',*,*,#304,.F.);
#306=EDGE_LOOP('',(#305));
#307=FACE_OUTER_BOUND('',#306,.T.);
#308=ORIENTED_EDGE('',*,*,#284,.T.);
#309=EDGE_LOOP('',(#308));
#310=FACE_BOUND('',#309,.T.);
#311=ADVANCED_FACE('',(#307,#310),#296,.F.);
#312=CARTESIAN_POINT('',(0.0,0.0,2.600000000000001));
#313=DIRECTION('',(4.440892E-016,3.061516E-016,1.0));
#314=DIRECTION('',(-1.0,0.0,0.0));
#315=AXIS2_PLACEMENT_3D('',#312,#313,#314);
#316=CONICAL_SURFACE('',#315,0.453500000000001,45.000000000000028);
#317=CARTESIAN_POINT('',(-0.463500000000003,0.0,2.610000000000003));
#318=VERTEX_POINT('',#317);
#319=CARTESIAN_POINT('',(0.0,0.0,2.610000000000003));
#320=DIRECTION('',(0.0,0.0,-1.0));
#321=DIRECTION('',(-1.0,0.0,0.0));
#322=AXIS2_PLACEMENT_3D('',#319,#320,#321);
#323=CIRCLE('',#322,0.463500000000001);
#324=EDGE_CURVE('',#318,#318,#323,.T.);
#325=ORIENTED_EDGE('',*,*,#324,.F.);
#326=EDGE_LOOP('',(#325));
#327=FACE_OUTER_BOUND('',#326,.T.);
#328=ORIENTED_EDGE('',*,*,#304,.T.);
#329=EDGE_LOOP('',(#328));
#330=FACE_BOUND('',#329,.T.);
#331=ADVANCED_FACE('',(#327,#330),#316,.F.);
#332=CARTESIAN_POINT('',(-0.466250000000002,0.0,2.610000000000003));
#333=DIRECTION('',(0.0,0.0,1.0));
#334=DIRECTION('',(0.0,-1.0,0.0));
#335=AXIS2_PLACEMENT_3D('',#332,#333,#334);
#336=PLANE('',#335);
#337=CARTESIAN_POINT('',(-0.469000000000001,0.0,2.610000000000003));
#338=VERTEX_POINT('',#337);
#339=CARTESIAN_POINT('',(0.0,0.0,2.610000000000003));
#340=DIRECTION('',(0.0,0.0,-1.0));
#341=DIRECTION('',(-1.0,0.0,0.0));
#342=AXIS2_PLACEMENT_3D('',#339,#340,#341);
#343=CIRCLE('',#342,0.469000000000000);
#344=EDGE_CURVE('',#338,#338,#343,.T.);
#345=ORIENTED_EDGE('',*,*,#344,.F.);
#346=EDGE_LOOP('',(#345));
#347=FACE_OUTER_BOUND('',#346,.T.);
#348=ORIENTED_EDGE('',*,*,#324,.T.);
#349=EDGE_LOOP('',(#348));
#350=FACE_BOUND('',#349,.T.);
#351=ADVANCED_FACE('',(#347,#350),#336,.T.);
#352=CARTESIAN_POINT('',(0.0,0.0,2.670000000000002));
#353=DIRECTION('',(-4.440892E-016,-3.061516E-016,-1.0));
#354=DIRECTION('',(-1.0,0.0,0.0));
#355=AXIS2_PLACEMENT_3D('',#352,#353,#354);
#356=CYLINDRICAL_SURFACE('',#355,0.469000000000000);
#357=CARTESIAN_POINT('',(-0.469000000000001,0.0,2.730000000000001));
#358=VERTEX_POINT('',#357);
#359=CARTESIAN_POINT('',(0.0,0.0,2.730000000000001));
#360=DIRECTION('',(0.0,0.0,-1.0));
#361=DIRECTION('',(-1.0,0.0,0.0));
#362=AXIS2_PLACEMENT_3D('',#359,#360,#361);
#363=CIRCLE('',#362,0.469000000000000);
#364=EDGE_CURVE('',#358,#358,#363,.T.);
#365=ORIENTED_EDGE('',*,*,#364,.F.);
#366=EDGE_LOOP('',(#365));
#367=FACE_OUTER_BOUND('',#366,.T.);
#368=ORIENTED_EDGE('',*,*,#344,.T.);
#369=EDGE_LOOP('',(#368));
#370=FACE_BOUND('',#369,.T.);
#371=ADVANCED_FACE('',(#367,#370),#356,.F.);
#372=CARTESIAN_POINT('',(-0.521999999999999,0.0,2.730000000000001));
#373=DIRECTION('',(0.0,0.0,1.0));
#374=DIRECTION('',(0.0,-1.0,0.0));
#375=AXIS2_PLACEMENT_3D('',#372,#373,#374);
#376=PLANE('',#375);
#377=ORIENTED_EDGE('',*,*,#247,.T.);
#378=EDGE_LOOP('',(#377));
#379=FACE_OUTER_BOUND('',#378,.T.);
#380=ORIENTED_EDGE('',*,*,#364,.T.);
#381=EDGE_LOOP('',(#380));
#382=FACE_BOUND('',#381,.T.);
#383=ADVANCED_FACE('',(#379,#382),#376,.T.);
#384=CARTESIAN_POINT('',(0.0,0.0,2.482500000000002));
#385=DIRECTION('',(-4.440892E-016,-3.061516E-016,-1.0));
#386=DIRECTION('',(-1.0,0.0,0.0));
#387=AXIS2_PLACEMENT_3D('',#384,#385,#386);
#388=CYLINDRICAL_SURFACE('',#387,0.610000000000001);
#389=ORIENTED_EDGE('',*,*,#236,.T.);
#390=EDGE_LOOP('',(#389));
#391=FACE_OUTER_BOUND('',#390,.T.);
#392=CARTESIAN_POINT('',(-0.609999999999999,0.0,2.270000000000003));
#393=VERTEX_POINT('',#392);
#394=CARTESIAN_POINT('',(0.0,0.0,2.270000000000003));
#395=DIRECTION('',(0.0,0.0,-1.0));
#396=DIRECTION('',(-1.0,0.0,0.0));
#397=AXIS2_PLACEMENT_3D('',#394,#395,#396);
#398=CIRCLE('',#397,0.610000000000000);
#399=EDGE_CURVE('',#393,#393,#398,.T.);
#400=ORIENTED_EDGE('',*,*,#399,.F.);
#401=EDGE_LOOP('',(#400));
#402=FACE_BOUND('',#401,.T.);
#403=ADVANCED_FACE('',(#391,#402),#388,.T.);
#404=CARTESIAN_POINT('',(0.0,0.0,2.260000000000003));
#405=DIRECTION('',(4.440892E-016,3.061516E-016,1.0));
#406=DIRECTION('',(-1.0,0.0,0.0));
#407=AXIS2_PLACEMENT_3D('',#404,#405,#406);
#408=CONICAL_SURFACE('',#407,0.600000000000000,45.000000000000028);
#409=CARTESIAN_POINT('',(-0.590000000000000,0.0,2.250000000000004));
#410=VERTEX_POINT('',#409);
#411=CARTESIAN_POINT('',(0.0,0.0,2.250000000000001));
#412=DIRECTION('',(0.0,0.0,-1.0));
#413=DIRECTION('',(-1.0,0.0,0.0));
#414=AXIS2_PLACEMENT_3D('',#411,#412,#413);
#415=CIRCLE('',#414,0.589999999999998);
#416=EDGE_CURVE('',#410,#410,#415,.T.);
#417=ORIENTED_EDGE('',*,*,#416,.F.);
#418=EDGE_LOOP('',(#417));
#419=FACE_OUTER_BOUND('',#418,.T.);
#420=ORIENTED_EDGE('',*,*,#399,.T.);
#421=EDGE_LOOP('',(#420));
#422=FACE_BOUND('',#421,.T.);
#423=ADVANCED_FACE('',(#419,#422),#408,.T.);
#424=CARTESIAN_POINT('',(0.0,0.0,2.232500000000002));
#425=DIRECTION('',(0.0,-6.123032E-017,-1.0));
#426=DIRECTION('',(1.0,0.0,0.0));
#427=AXIS2_PLACEMENT_3D('',#424,#425,#426);
#428=CONICAL_SURFACE('',#427,0.663500000000000,45.000000000000007);
#429=CARTESIAN_POINT('',(-0.680999999999997,7.105427E-015,2.215000000000002));
#430=VERTEX_POINT('',#429);
#431=CARTESIAN_POINT('',(0.0,0.0,2.215000000000002));
#432=DIRECTION('',(0.0,0.0,1.0));
#433=DIRECTION('',(1.0,0.0,0.0));
#434=AXIS2_PLACEMENT_3D('',#431,#432,#433);
#435=CIRCLE('',#434,0.681000000000000);
#436=EDGE_CURVE('',#430,#430,#435,.T.);
#437=ORIENTED_EDGE('',*,*,#436,.T.);
#438=EDGE_LOOP('',(#437));
#439=FACE_OUTER_BOUND('',#438,.T.);
#440=CARTESIAN_POINT('',(-0.646000000000001,7.105427E-015,2.250000000000002));
#441=VERTEX_POINT('',#440);
#442=CARTESIAN_POINT('',(0.0,0.0,2.250000000000002));
#443=DIRECTION('',(0.0,0.0,-1.0));
#444=DIRECTION('',(1.0,0.0,0.0));
#445=AXIS2_PLACEMENT_3D('',#442,#443,#444);
#446=CIRCLE('',#445,0.646000000000000);
#447=EDGE_CURVE('',#441,#441,#446,.T.);
#448=ORIENTED_EDGE('',*,*,#447,.T.);
#449=EDGE_LOOP('',(#448));
#450=FACE_BOUND('',#449,.T.);
#451=ADVANCED_FACE('',(#439,#450),#428,.T.);
#452=CARTESIAN_POINT('',(0.0,0.0,2.400000000000002));
#453=DIRECTION('',(0.0,-1.224606E-016,-1.0));
#454=DIRECTION('',(1.0,0.0,0.0));
#455=AXIS2_PLACEMENT_3D('',#452,#453,#454);
#456=CYLINDRICAL_SURFACE('',#455,0.681000000000000);
#457=CARTESIAN_POINT('',(0.680999999999997,0.0,1.200000000000001));
#458=VERTEX_POINT('',#457);
#459=CARTESIAN_POINT('',(0.0,0.0,1.200000000000001));
#460=DIRECTION('',(0.0,0.0,1.0));
#461=DIRECTION('',(1.0,0.0,0.0));
#462=AXIS2_PLACEMENT_3D('',#459,#460,#461);
#463=CIRCLE('',#462,0.681000000000000);
#464=EDGE_CURVE('',#458,#458,#463,.T.);
#465=ORIENTED_EDGE('',*,*,#464,.T.);
#466=EDGE_LOOP('',(#465));
#467=FACE_OUTER_BOUND('',#466,.T.);
#468=ORIENTED_EDGE('',*,*,#436,.F.);
#469=EDGE_LOOP('',(#468));
#470=FACE_BOUND('',#469,.T.);
#471=ADVANCED_FACE('',(#467,#470),#456,.T.);
#472=CARTESIAN_POINT('',(-0.627499999999998,0.0,2.250000000000002));
#473=DIRECTION('',(0.0,0.0,1.0));
#474=DIRECTION('',(0.0,-1.0,0.0));
#475=AXIS2_PLACEMENT_3D('',#472,#473,#474);
#476=PLANE('',#475);
#477=ORIENTED_EDGE('',*,*,#447,.F.);
#478=EDGE_LOOP('',(#477));
#479=FACE_OUTER_BOUND('',#478,.T.);
#480=ORIENTED_EDGE('',*,*,#416,.T.);
#481=EDGE_LOOP('',(#480));
#482=FACE_BOUND('',#481,.T.);
#483=ADVANCED_FACE('',(#479,#482),#476,.T.);
#484=CARTESIAN_POINT('',(0.0,0.0,1.017500000000002));
#485=DIRECTION('',(0.0,3.061516E-016,1.0));
#486=DIRECTION('',(-1.0,0.0,0.0));
#487=AXIS2_PLACEMENT_3D('',#484,#485,#486);
#488=CONICAL_SURFACE('',#487,0.962500000000001,45.000000000000007);
#489=CARTESIAN_POINT('',(-0.945000000000000,0.0,1.000000000000002));
#490=VERTEX_POINT('',#489);
#491=CARTESIAN_POINT('',(0.0,0.0,1.000000000000002));
#492=DIRECTION('',(0.0,0.0,-1.0));
#493=DIRECTION('',(-1.0,0.0,0.0));
#494=AXIS2_PLACEMENT_3D('',#491,#492,#493);
#495=CIRCLE('',#494,0.945000000000001);
#496=EDGE_CURVE('',#490,#490,#495,.T.);
#497=ORIENTED_EDGE('',*,*,#496,.F.);
#498=EDGE_LOOP('',(#497));
#499=FACE_OUTER_BOUND('',#498,.T.);
#500=CARTESIAN_POINT('',(-0.980000000000001,0.0,1.035000000000002));
#501=VERTEX_POINT('',#500);
#502=CARTESIAN_POINT('',(0.0,0.0,1.035000000000002));
#503=DIRECTION('',(0.0,0.0,-1.0));
#504=DIRECTION('',(-1.0,0.0,0.0));
#505=AXIS2_PLACEMENT_3D('',#502,#503,#504);
#506=CIRCLE('',#505,0.980000000000001);
#507=EDGE_CURVE('',#501,#501,#506,.T.);
#508=ORIENTED_EDGE('',*,*,#507,.T.);
#509=EDGE_LOOP('',(#508));
#510=FACE_BOUND('',#509,.T.);
#511=ADVANCED_FACE('',(#499,#510),#488,.T.);
#512=CARTESIAN_POINT('',(-0.856623412263474,0.0,1.000000000000002));
#513=DIRECTION('',(0.0,0.0,-1.0));
#514=DIRECTION('',(0.0,1.0,0.0));
#515=AXIS2_PLACEMENT_3D('',#512,#513,#514);
#516=PLANE('',#515);
#517=ORIENTED_EDGE('',*,*,#496,.T.);
#518=EDGE_LOOP('',(#517));
#519=FACE_OUTER_BOUND('',#518,.T.);
#520=CARTESIAN_POINT('',(-0.768246824526944,0.0,1.000000000000002));
#521=VERTEX_POINT('',#520);
#522=CARTESIAN_POINT('',(0.0,0.0,1.000000000000002));
#523=DIRECTION('',(0.0,0.0,-1.0));
#524=DIRECTION('',(-1.0,0.0,0.0));
#525=AXIS2_PLACEMENT_3D('',#522,#523,#524);
#526=CIRCLE('',#525,0.768246824526945);
#527=EDGE_CURVE('',#521,#521,#526,.T.);
#528=ORIENTED_EDGE('',*,*,#527,.F.);
#529=EDGE_LOOP('',(#528));
#530=FACE_BOUND('',#529,.T.);
#531=ADVANCED_FACE('',(#519,#530),#516,.T.);
#532=CARTESIAN_POINT('',(0.0,0.0,0.868577894935379));
#533=DIRECTION('',(0.0,-3.061516E-016,-1.0));
#534=DIRECTION('',(-1.0,0.0,0.0));
#535=AXIS2_PLACEMENT_3D('',#532,#533,#534);
#536=CONICAL_SURFACE('',#535,0.844123412263473,30.000000000000043);
#537=CARTESIAN_POINT('',(-0.920000000000002,0.0,0.737155789870755));
#538=VERTEX_POINT('',#537);
#539=CARTESIAN_POINT('',(0.0,0.0,0.737155789870755));
#540=DIRECTION('',(0.0,0.0,-1.0));
#541=DIRECTION('',(-1.0,0.0,0.0));
#542=AXIS2_PLACEMENT_3D('',#539,#540,#541);
#543=CIRCLE('',#542,0.920000000000000);
#544=EDGE_CURVE('',#538,#538,#543,.T.);
#545=ORIENTED_EDGE('',*,*,#544,.F.);
#546=EDGE_LOOP('',(#545));
#547=FACE_OUTER_BOUND('',#546,.T.);
#548=ORIENTED_EDGE('',*,*,#527,.T.);
#549=EDGE_LOOP('',(#548));
#550=FACE_BOUND('',#549,.T.);
#551=ADVANCED_FACE('',(#547,#550),#536,.T.);
#552=CARTESIAN_POINT('',(0.0,0.0,0.728577894935379));
#553=DIRECTION('',(0.0,-3.061516E-016,-1.0));
#554=DIRECTION('',(-1.0,0.0,0.0));
#555=AXIS2_PLACEMENT_3D('',#552,#553,#554);
#556=CYLINDRICAL_SURFACE('',#555,0.920000000000001);
#557=CARTESIAN_POINT('',(-0.920000000000002,0.0,0.720000000000001));
#558=VERTEX_POINT('',#557);
#559=CARTESIAN_POINT('',(0.0,0.0,0.720000000000001));
#560=DIRECTION('',(0.0,0.0,-1.0));
#561=DIRECTION('',(-1.0,0.0,0.0));
#562=AXIS2_PLACEMENT_3D('',#559,#560,#561);
#563=CIRCLE('',#562,0.920000000000001);
#564=EDGE_CURVE('',#558,#558,#563,.T.);
#565=ORIENTED_EDGE('',*,*,#564,.F.);
#566=EDGE_LOOP('',(#565));
#567=FACE_OUTER_BOUND('',#566,.T.);
#568=ORIENTED_EDGE('',*,*,#544,.T.);
#569=EDGE_LOOP('',(#568));
#570=FACE_BOUND('',#569,.T.);
#571=ADVANCED_FACE('',(#567,#570),#556,.T.);
#572=CARTESIAN_POINT('',(-0.817999999999998,0.0,0.720000000000001));
#573=DIRECTION('',(0.0,0.0,-1.0));
#574=DIRECTION('',(0.0,1.0,0.0));
#575=AXIS2_PLACEMENT_3D('',#572,#573,#574);
#576=PLANE('',#575);
#577=ORIENTED_EDGE('',*,*,#564,.T.);
#578=EDGE_LOOP('',(#577));
#579=FACE_OUTER_BOUND('',#578,.T.);
#580=ORIENTED_EDGE('',*,*,#110,.T.);
#581=EDGE_LOOP('',(#580));
#582=FACE_BOUND('',#581,.T.);
#583=ADVANCED_FACE('',(#579,#582),#576,.T.);
#584=CARTESIAN_POINT('',(-0.847500000000000,0.0,1.200000000000001));
#585=DIRECTION('',(0.0,0.0,1.0));
#586=DIRECTION('',(0.0,-1.0,0.0));
#587=AXIS2_PLACEMENT_3D('',#584,#585,#586);
#588=PLANE('',#587);
#589=CARTESIAN_POINT('',(-0.945000000000000,0.0,1.200000000000001));
#590=VERTEX_POINT('',#589);
#591=CARTESIAN_POINT('',(0.0,0.0,1.200000000000001));
#592=DIRECTION('',(0.0,0.0,-1.0));
#593=DIRECTION('',(-1.0,0.0,0.0));
#594=AXIS2_PLACEMENT_3D('',#591,#592,#593);
#595=CIRCLE('',#594,0.945000000000001);
#596=EDGE_CURVE('',#590,#590,#595,.T.);
#597=ORIENTED_EDGE('',*,*,#596,.F.);
#598=EDGE_LOOP('',(#597));
#599=FACE_OUTER_BOUND('',#598,.T.);
#600=ORIENTED_EDGE('',*,*,#464,.F.);
#601=EDGE_LOOP('',(#600));
#602=FACE_BOUND('',#601,.T.);
#603=ADVANCED_FACE('',(#599,#602),#588,.T.);
#604=CARTESIAN_POINT('',(0.0,0.0,1.182500000000001));
#605=DIRECTION('',(0.0,-3.061516E-016,-1.0));
#606=DIRECTION('',(-1.0,0.0,0.0));
#607=AXIS2_PLACEMENT_3D('',#604,#605,#606);
#608=CONICAL_SURFACE('',#607,0.962500000000001,45.000000000000007);
#609=CARTESIAN_POINT('',(-0.980000000000001,0.0,1.165000000000001));
#610=VERTEX_POINT('',#609);
#611=CARTESIAN_POINT('',(0.0,0.0,1.165000000000001));
#612=DIRECTION('',(0.0,0.0,-1.0));
#613=DIRECTION('',(-1.0,0.0,0.0));
#614=AXIS2_PLACEMENT_3D('',#611,#612,#613);
#615=CIRCLE('',#614,0.980000000000001);
#616=EDGE_CURVE('',#610,#610,#615,.T.);
#617=ORIENTED_EDGE('',*,*,#616,.F.);
#618=EDGE_LOOP('',(#617));
#619=FACE_OUTER_BOUND('',#618,.T.);
#620=ORIENTED_EDGE('',*,*,#596,.T.);
#621=EDGE_LOOP('',(#620));
#622=FACE_BOUND('',#621,.T.);
#623=ADVANCED_FACE('',(#619,#622),#608,.T.);
#624=CARTESIAN_POINT('',(0.0,0.0,1.100000000000001));
#625=DIRECTION('',(0.0,-3.061516E-016,-1.0));
#626=DIRECTION('',(-1.0,0.0,0.0));
#627=AXIS2_PLACEMENT_3D('',#624,#625,#626);
#628=CYLINDRICAL_SURFACE('',#627,0.980000000000001);
#629=ORIENTED_EDGE('',*,*,#507,.F.);
#630=EDGE_LOOP('',(#629));
#631=FACE_OUTER_BOUND('',#630,.T.);
#632=ORIENTED_EDGE('',*,*,#616,.T.);
#633=EDGE_LOOP('',(#632));
#634=FACE_BOUND('',#633,.T.);
#635=ADVANCED_FACE('',(#631,#634),#628,.T.);
#636=CLOSED_SHELL('',(#77,#86,#114,#134,#154,#174,#186,#214,#223,#251,#271,#291,#311,#331,#351,#371,#383,#403,#423,#451,#471,#483,#511,#531,#551,#571,#583,#603,#623,#635));
#637=MANIFOLD_SOLID_BREP('',#636);
#638=COLOUR_RGB('Default',0.752941012382507,0.752941012382507,0.752941012382507);
#639=FILL_AREA_STYLE_COLOUR('Default',#638);
#640=FILL_AREA_STYLE('Default',(#639));
#641=SURFACE_STYLE_FILL_AREA(#640);
#642=SURFACE_SIDE_STYLE('Default',(#641));
#643=SURFACE_STYLE_USAGE(.BOTH.,#642);
#644=PRESENTATION_STYLE_ASSIGNMENT((#643));
#645=STYLED_ITEM('',(#644),#637);
#646=MECHANICAL_DESIGN_GEOMETRIC_PRESENTATION_REPRESENTATION('',(#645),#42);
#647=ADVANCED_BREP_SHAPE_REPRESENTATION('ABSR',(#637),#42);
#648=SHAPE_REPRESENTATION_RELATIONSHIP('SRR','None',#647,#47);
ENDSEC;
END-ISO-10303-21;
