ISO-10303-21;
HEADER;
/****************************************************************
 * Generated by software with PDE/Lib inside                    *
 * PDElib Version v51a, created Tue 12/06/2005                  *
 * International Technegroup Inc. (www.iti-oh.com)              *
 ****************************************************************/
FILE_DESCRIPTION((''),'2;1');
FILE_NAME('C:\\Documents and Settings\\JC.DESIGN\\Desktop\\Transfer File\\Web files from Annette\\WEB 3d UPDATES\\ldp-11a.stp','2011-11-10T14:43:20',('JC'),(''),'Autodesk Inventor 11','Autodesk Inventor 11','');
FILE_SCHEMA(('AUTOMOTIVE_DESIGN { 1 0 10303 214 1 1 1 1 }'));
ENDSEC;
DATA;
#5=APPLICATION_CONTEXT('automotive design');
#6=APPLICATION_PROTOCOL_DEFINITION('Draft International Standard','automotive_design',1998,#5);
#7=PRODUCT_CONTEXT('None',#5,'mechanical');
#8=PRODUCT('ldp-11a1','ldp-11a1','None',(#7));
#9=PRODUCT_RELATED_PRODUCT_CATEGORY('part','description',(#8));
#10=PRODUCT_DEFINITION_FORMATION('None','None',#8);
#11=PRODUCT_DEFINITION_CONTEXT('part definition',#5,'design');
#12=PRODUCT_DEFINITION('None','None',#10,#11);
#18=(NAMED_UNIT(*)PLANE_ANGLE_UNIT()SI_UNIT($,.RADIAN.));
#19=DIMENSIONAL_EXPONENTS(0.0,0.0,0.0,0.0,0.0,0.0,0.0);
#20=PLANE_ANGLE_MEASURE_WITH_UNIT(PLANE_ANGLE_MEASURE(0.017453292500000),#18);
#24=(CONVERSION_BASED_UNIT('DEGREE',#20)NAMED_UNIT(#19)PLANE_ANGLE_UNIT());
#28=(NAMED_UNIT(*)SI_UNIT($,.STERADIAN.)SOLID_ANGLE_UNIT());
#32=(LENGTH_UNIT()NAMED_UNIT(*)SI_UNIT(.CENTI.,.METRE.));
#33=DIMENSIONAL_EXPONENTS(1.0,0.0,0.0,0.0,0.0,0.0,0.0);
#34=LENGTH_MEASURE_WITH_UNIT(LENGTH_MEASURE(2.540000000000000),#32);
#38=(CONVERSION_BASED_UNIT('INCH',#34)LENGTH_UNIT()NAMED_UNIT(#33));
#40=UNCERTAINTY_MEASURE_WITH_UNIT(LENGTH_MEASURE(0.000393700787402),#38,'DISTANCE_ACCURACY_VALUE','');
#42=(GEOMETRIC_REPRESENTATION_CONTEXT(3)GLOBAL_UNCERTAINTY_ASSIGNED_CONTEXT((#40))GLOBAL_UNIT_ASSIGNED_CONTEXT((#24,#28,#38))REPRESENTATION_CONTEXT('None','None'));
#43=AXIS2_PLACEMENT_3D('',#44,#45,#46);
#44=CARTESIAN_POINT('',(0.0,0.0,0.0));
#45=DIRECTION('',(0.0,0.0,1.0));
#46=DIRECTION('',(1.0,0.0,0.0));
#47=SHAPE_REPRESENTATION('',(#43),#42);
#48=PRODUCT_DEFINITION_SHAPE('','',#12);
#49=SHAPE_DEFINITION_REPRESENTATION(#48,#47);
#50=CARTESIAN_POINT('',(0.0,1.038000000000001,-6.355707E-017));
#51=DIRECTION('',(0.0,1.0,-6.123032E-017));
#52=DIRECTION('',(-1.0,0.0,0.0));
#53=AXIS2_PLACEMENT_3D('',#50,#51,#52);
#54=CONICAL_SURFACE('',#53,0.229000000000000,44.999999999999368);
#55=CARTESIAN_POINT('',(0.219000000000001,1.028000000000000,-1.839302E-015));
#56=VERTEX_POINT('',#55);
#57=CARTESIAN_POINT('',(0.0,1.028000000000000,-6.294477E-017));
#58=DIRECTION('',(0.0,-1.0,0.0));
#59=DIRECTION('',(-1.0,0.0,0.0));
#60=AXIS2_PLACEMENT_3D('',#57,#58,#59);
#61=CIRCLE('',#60,0.219000000000000);
#62=EDGE_CURVE('',#56,#56,#61,.T.);
#63=ORIENTED_EDGE('',*,*,#62,.T.);
#64=EDGE_LOOP('',(#63));
#65=FACE_OUTER_BOUND('',#64,.T.);
#66=CARTESIAN_POINT('',(0.239000000000001,1.048000000000000,-1.840526E-015));
#67=VERTEX_POINT('',#66);
#68=CARTESIAN_POINT('',(0.0,1.048000000000000,-6.416937E-017));
#69=DIRECTION('',(0.0,1.0,0.0));
#70=DIRECTION('',(-1.0,0.0,0.0));
#71=AXIS2_PLACEMENT_3D('',#68,#69,#70);
#72=CIRCLE('',#71,0.239000000000000);
#73=EDGE_CURVE('',#67,#67,#72,.T.);
#74=ORIENTED_EDGE('',*,*,#73,.T.);
#75=EDGE_LOOP('',(#74));
#76=FACE_BOUND('',#75,.T.);
#77=ADVANCED_FACE('',(#65,#76),#54,.F.);
#78=CARTESIAN_POINT('',(0.314499999999999,1.048000000000000,-6.416937E-017));
#79=DIRECTION('',(0.0,-1.0,0.0));
#80=DIRECTION('',(1.0,0.0,0.0));
#81=AXIS2_PLACEMENT_3D('',#78,#79,#80);
#82=PLANE('',#81);
#83=CARTESIAN_POINT('',(0.294499999999999,1.048000000000000,-1.840526E-015));
#84=VERTEX_POINT('',#83);
#85=CARTESIAN_POINT('',(0.0,1.048000000000000,-6.416937E-017));
#86=DIRECTION('',(0.0,-1.0,0.0));
#87=DIRECTION('',(-1.0,0.0,0.0));
#88=AXIS2_PLACEMENT_3D('',#85,#86,#87);
#89=CIRCLE('',#88,0.294500000000000);
#90=EDGE_CURVE('',#84,#84,#89,.T.);
#91=ORIENTED_EDGE('',*,*,#90,.F.);
#92=EDGE_LOOP('',(#91));
#93=FACE_OUTER_BOUND('',#92,.T.);
#94=ORIENTED_EDGE('',*,*,#73,.F.);
#95=EDGE_LOOP('',(#94));
#96=FACE_BOUND('',#95,.T.);
#97=ADVANCED_FACE('',(#93,#96),#82,.F.);
#98=CARTESIAN_POINT('',(0.0,0.0,0.0));
#99=DIRECTION('',(0.0,1.0,-6.123032E-017));
#100=DIRECTION('',(1.0,0.0,0.0));
#101=AXIS2_PLACEMENT_3D('',#98,#99,#100);
#102=CYLINDRICAL_SURFACE('',#101,0.219000000000000);
#103=CARTESIAN_POINT('',(0.219000000000001,0.020000000000000,1.775132E-015));
#104=VERTEX_POINT('',#103);
#105=CARTESIAN_POINT('',(0.0,0.020000000000000,-1.224606E-018));
#106=DIRECTION('',(0.0,1.0,0.0));
#107=DIRECTION('',(-1.0,0.0,0.0));
#108=AXIS2_PLACEMENT_3D('',#105,#106,#107);
#109=CIRCLE('',#108,0.219000000000000);
#110=EDGE_CURVE('',#104,#104,#109,.T.);
#111=ORIENTED_EDGE('',*,*,#110,.F.);
#112=EDGE_LOOP('',(#111));
#113=FACE_OUTER_BOUND('',#112,.T.);
#114=ORIENTED_EDGE('',*,*,#62,.F.);
#115=EDGE_LOOP('',(#114));
#116=FACE_BOUND('',#115,.T.);
#117=ADVANCED_FACE('',(#113,#116),#102,.F.);
#118=CARTESIAN_POINT('',(0.0,1.038000000000001,-6.355707E-017));
#119=DIRECTION('',(0.0,-1.0,6.123032E-017));
#120=DIRECTION('',(-1.0,0.0,0.0));
#121=AXIS2_PLACEMENT_3D('',#118,#119,#120);
#122=CONICAL_SURFACE('',#121,0.304500000000000,44.999999999999368);
#123=ORIENTED_EDGE('',*,*,#90,.T.);
#124=EDGE_LOOP('',(#123));
#125=FACE_OUTER_BOUND('',#124,.T.);
#126=CARTESIAN_POINT('',(0.314499999999999,1.028000000000000,-1.839302E-015));
#127=VERTEX_POINT('',#126);
#128=CARTESIAN_POINT('',(0.0,1.028000000000000,-6.294477E-017));
#129=DIRECTION('',(0.0,1.0,0.0));
#130=DIRECTION('',(-1.0,0.0,0.0));
#131=AXIS2_PLACEMENT_3D('',#128,#129,#130);
#132=CIRCLE('',#131,0.314500000000000);
#133=EDGE_CURVE('',#127,#127,#132,.T.);
#134=ORIENTED_EDGE('',*,*,#133,.T.);
#135=EDGE_LOOP('',(#134));
#136=FACE_BOUND('',#135,.T.);
#137=ADVANCED_FACE('',(#125,#136),#122,.T.);
#138=CARTESIAN_POINT('',(0.0,0.0,0.0));
#139=DIRECTION('',(0.0,1.0,-6.123032E-017));
#140=DIRECTION('',(1.0,0.0,0.0));
#141=AXIS2_PLACEMENT_3D('',#138,#139,#140);
#142=CYLINDRICAL_SURFACE('',#141,0.314500000000000);
#143=CARTESIAN_POINT('',(0.314499999999999,0.020000000000000,-1.777581E-015));
#144=VERTEX_POINT('',#143);
#145=CARTESIAN_POINT('',(0.0,0.020000000000000,-1.224606E-018));
#146=DIRECTION('',(0.0,-1.0,0.0));
#147=DIRECTION('',(-1.0,0.0,0.0));
#148=AXIS2_PLACEMENT_3D('',#145,#146,#147);
#149=CIRCLE('',#148,0.314500000000000);
#150=EDGE_CURVE('',#144,#144,#149,.T.);
#151=ORIENTED_EDGE('',*,*,#150,.F.);
#152=EDGE_LOOP('',(#151));
#153=FACE_OUTER_BOUND('',#152,.T.);
#154=ORIENTED_EDGE('',*,*,#133,.F.);
#155=EDGE_LOOP('',(#154));
#156=FACE_BOUND('',#155,.T.);
#157=ADVANCED_FACE('',(#153,#156),#142,.T.);
#158=CARTESIAN_POINT('',(0.0,0.010000000000000,-6.123032E-019));
#159=DIRECTION('',(0.0,-1.0,6.123032E-017));
#160=DIRECTION('',(-1.0,0.0,0.0));
#161=AXIS2_PLACEMENT_3D('',#158,#159,#160);
#162=CONICAL_SURFACE('',#161,0.229000000000000,44.999999999999396);
#163=ORIENTED_EDGE('',*,*,#110,.T.);
#164=EDGE_LOOP('',(#163));
#165=FACE_OUTER_BOUND('',#164,.T.);
#166=CARTESIAN_POINT('',(0.239000000000001,1.087669E-031,1.776357E-015));
#167=VERTEX_POINT('',#166);
#168=CARTESIAN_POINT('',(0.0,0.0,0.0));
#169=DIRECTION('',(0.0,-1.0,0.0));
#170=DIRECTION('',(-1.0,0.0,0.0));
#171=AXIS2_PLACEMENT_3D('',#168,#169,#170);
#172=CIRCLE('',#171,0.239000000000000);
#173=EDGE_CURVE('',#167,#167,#172,.T.);
#174=ORIENTED_EDGE('',*,*,#173,.T.);
#175=EDGE_LOOP('',(#174));
#176=FACE_BOUND('',#175,.T.);
#177=ADVANCED_FACE('',(#165,#176),#162,.F.);
#178=CARTESIAN_POINT('',(0.0,-5.438345E-032,-8.881784E-016));
#179=DIRECTION('',(0.0,-1.0,0.0));
#180=DIRECTION('',(1.0,0.0,0.0));
#181=AXIS2_PLACEMENT_3D('',#178,#179,#180);
#182=PLANE('',#181);
#183=CARTESIAN_POINT('',(0.294499999999999,-1.087669E-031,-1.776357E-015));
#184=VERTEX_POINT('',#183);
#185=CARTESIAN_POINT('',(0.0,0.0,0.0));
#186=DIRECTION('',(0.0,1.0,0.0));
#187=DIRECTION('',(-1.0,0.0,0.0));
#188=AXIS2_PLACEMENT_3D('',#185,#186,#187);
#189=CIRCLE('',#188,0.294500000000000);
#190=EDGE_CURVE('',#184,#184,#189,.T.);
#191=ORIENTED_EDGE('',*,*,#190,.F.);
#192=EDGE_LOOP('',(#191));
#193=FACE_OUTER_BOUND('',#192,.T.);
#194=ORIENTED_EDGE('',*,*,#173,.F.);
#195=EDGE_LOOP('',(#194));
#196=FACE_BOUND('',#195,.T.);
#197=ADVANCED_FACE('',(#193,#196),#182,.T.);
#198=CARTESIAN_POINT('',(0.0,0.010000000000000,-6.123032E-019));
#199=DIRECTION('',(0.0,1.0,-6.123032E-017));
#200=DIRECTION('',(-1.0,0.0,0.0));
#201=AXIS2_PLACEMENT_3D('',#198,#199,#200);
#202=CONICAL_SURFACE('',#201,0.304500000000000,44.999999999999396);
#203=ORIENTED_EDGE('',*,*,#150,.T.);
#204=EDGE_LOOP('',(#203));
#205=FACE_OUTER_BOUND('',#204,.T.);
#206=ORIENTED_EDGE('',*,*,#190,.T.);
#207=EDGE_LOOP('',(#206));
#208=FACE_BOUND('',#207,.T.);
#209=ADVANCED_FACE('',(#205,#208),#202,.T.);
#210=CLOSED_SHELL('',(#77,#97,#117,#137,#157,#177,#197,#209));
#211=MANIFOLD_SOLID_BREP('',#210);
#212=COLOUR_RGB('Default',0.752941012382507,0.752941012382507,0.752941012382507);
#213=FILL_AREA_STYLE_COLOUR('Default',#212);
#214=FILL_AREA_STYLE('Default',(#213));
#215=SURFACE_STYLE_FILL_AREA(#214);
#216=SURFACE_SIDE_STYLE('Default',(#215));
#217=SURFACE_STYLE_USAGE(.BOTH.,#216);
#218=PRESENTATION_STYLE_ASSIGNMENT((#217));
#219=STYLED_ITEM('',(#218),#211);
#220=MECHANICAL_DESIGN_GEOMETRIC_PRESENTATION_REPRESENTATION('',(#219),#42);
#221=ADVANCED_BREP_SHAPE_REPRESENTATION('ABSR',(#211),#42);
#222=SHAPE_REPRESENTATION_RELATIONSHIP('SRR','None',#221,#47);
ENDSEC;
END-ISO-10303-21;
