ISO-10303-21;
HEADER;
/****************************************************************
 * Generated by software with PDE/Lib inside                    *
 * PDElib Version v51a, created Tue 12/06/2005                  *
 * International Technegroup Inc. (www.iti-oh.com)              *
 ****************************************************************/
FILE_DESCRIPTION((''),'2;1');
FILE_NAME('\\\\Lanstorage1\\temp3d\\832tm4.stp','2009-04-28T10:13:38',('JC'),(''),'Autodesk Inventor 11','Autodesk Inventor 11','');
FILE_SCHEMA(('AUTOMOTIVE_DESIGN { 1 0 10303 214 1 1 1 1 }'));
ENDSEC;
DATA;
#5=APPLICATION_CONTEXT('automotive design');
#6=APPLICATION_PROTOCOL_DEFINITION('Draft International Standard','automotive_design',1998,#5);
#7=PRODUCT_CONTEXT('None',#5,'mechanical');
#8=PRODUCT('832tm41','832tm41','None',(#7));
#9=PRODUCT_RELATED_PRODUCT_CATEGORY('part','description',(#8));
#10=PRODUCT_DEFINITION_FORMATION('None','None',#8);
#11=PRODUCT_DEFINITION_CONTEXT('part definition',#5,'design');
#12=PRODUCT_DEFINITION('None','None',#10,#11);
#18=(NAMED_UNIT(*)PLANE_ANGLE_UNIT()SI_UNIT($,.RADIAN.));
#19=DIMENSIONAL_EXPONENTS(0.0,0.0,0.0,0.0,0.0,0.0,0.0);
#20=PLANE_ANGLE_MEASURE_WITH_UNIT(PLANE_ANGLE_MEASURE(0.017453292500000),#18);
#24=(CONVERSION_BASED_UNIT('DEGREE',#20)NAMED_UNIT(#19)PLANE_ANGLE_UNIT());
#28=(NAMED_UNIT(*)SI_UNIT($,.STERADIAN.)SOLID_ANGLE_UNIT());
#32=(LENGTH_UNIT()NAMED_UNIT(*)SI_UNIT(.CENTI.,.METRE.));
#33=DIMENSIONAL_EXPONENTS(1.0,0.0,0.0,0.0,0.0,0.0,0.0);
#34=LENGTH_MEASURE_WITH_UNIT(LENGTH_MEASURE(2.540000000000000),#32);
#38=(CONVERSION_BASED_UNIT('INCH',#34)LENGTH_UNIT()NAMED_UNIT(#33));
#40=UNCERTAINTY_MEASURE_WITH_UNIT(LENGTH_MEASURE(0.000393700787402),#38,'DISTANCE_ACCURACY_VALUE','');
#42=(GEOMETRIC_REPRESENTATION_CONTEXT(3)GLOBAL_UNCERTAINTY_ASSIGNED_CONTEXT((#40))GLOBAL_UNIT_ASSIGNED_CONTEXT((#24,#28,#38))REPRESENTATION_CONTEXT('None','None'));
#43=AXIS2_PLACEMENT_3D('',#44,#45,#46);
#44=CARTESIAN_POINT('',(0.0,0.0,0.0));
#45=DIRECTION('',(0.0,0.0,1.0));
#46=DIRECTION('',(1.0,0.0,0.0));
#47=SHAPE_REPRESENTATION('',(#43),#42);
#48=PRODUCT_DEFINITION_SHAPE('','',#12);
#49=SHAPE_DEFINITION_REPRESENTATION(#48,#47);
#50=CARTESIAN_POINT('',(0.0,0.0,0.230975000000000));
#51=DIRECTION('',(0.0,0.0,1.0));
#52=DIRECTION('',(1.0,0.0,0.0));
#53=AXIS2_PLACEMENT_3D('',#50,#51,#52);
#54=CONICAL_SURFACE('',#53,0.065975000000000,45.000000000000007);
#55=CARTESIAN_POINT('',(-0.076950000000000,-5.373393E-016,0.241950000000000));
#56=VERTEX_POINT('',#55);
#57=CARTESIAN_POINT('',(0.0,0.0,0.241950000000000));
#58=DIRECTION('',(0.0,0.0,-1.0));
#59=DIRECTION('',(1.0,0.0,0.0));
#60=AXIS2_PLACEMENT_3D('',#57,#58,#59);
#61=CIRCLE('',#60,0.076950000000000);
#62=EDGE_CURVE('',#56,#56,#61,.T.);
#63=ORIENTED_EDGE('',*,*,#62,.T.);
#64=EDGE_LOOP('',(#63));
#65=FACE_OUTER_BOUND('',#64,.T.);
#66=CARTESIAN_POINT('',(-0.055000000000000,-3.840632E-016,0.220000000000000));
#67=VERTEX_POINT('',#66);
#68=CARTESIAN_POINT('',(0.0,0.0,0.220000000000000));
#69=DIRECTION('',(0.0,0.0,-1.0));
#70=DIRECTION('',(1.0,0.0,0.0));
#71=AXIS2_PLACEMENT_3D('',#68,#69,#70);
#72=CIRCLE('',#71,0.055000000000000);
#73=EDGE_CURVE('',#67,#67,#72,.T.);
#74=ORIENTED_EDGE('',*,*,#73,.F.);
#75=EDGE_LOOP('',(#74));
#76=FACE_BOUND('',#75,.T.);
#77=ADVANCED_FACE('',(#65,#76),#54,.T.);
#78=CARTESIAN_POINT('',(0.0,0.0,0.310000000000000));
#79=DIRECTION('',(0.0,0.0,-1.0));
#80=DIRECTION('',(-1.0,0.0,0.0));
#81=AXIS2_PLACEMENT_3D('',#78,#79,#80);
#82=CYLINDRICAL_SURFACE('',#81,0.076950000000000);
#83=CARTESIAN_POINT('',(-0.076950000000000,5.373393E-016,0.378050000000000));
#84=VERTEX_POINT('',#83);
#85=CARTESIAN_POINT('',(0.0,0.0,0.378050000000000));
#86=DIRECTION('',(0.0,0.0,1.0));
#87=DIRECTION('',(1.0,0.0,0.0));
#88=AXIS2_PLACEMENT_3D('',#85,#86,#87);
#89=CIRCLE('',#88,0.076950000000000);
#90=EDGE_CURVE('',#84,#84,#89,.T.);
#91=ORIENTED_EDGE('',*,*,#90,.F.);
#92=EDGE_LOOP('',(#91));
#93=FACE_OUTER_BOUND('',#92,.T.);
#94=ORIENTED_EDGE('',*,*,#62,.F.);
#95=EDGE_LOOP('',(#94));
#96=FACE_BOUND('',#95,.T.);
#97=ADVANCED_FACE('',(#93,#96),#82,.T.);
#98=CARTESIAN_POINT('',(0.0,0.0,0.389025000000000));
#99=DIRECTION('',(0.0,0.0,-1.0));
#100=DIRECTION('',(1.0,0.0,0.0));
#101=AXIS2_PLACEMENT_3D('',#98,#99,#100);
#102=CONICAL_SURFACE('',#101,0.065975000000000,44.999999999999979);
#103=ORIENTED_EDGE('',*,*,#90,.T.);
#104=EDGE_LOOP('',(#103));
#105=FACE_OUTER_BOUND('',#104,.T.);
#106=CARTESIAN_POINT('',(0.055000000000000,0.0,0.400000000000000));
#107=VERTEX_POINT('',#106);
#108=CARTESIAN_POINT('',(0.0,0.0,0.400000000000000));
#109=DIRECTION('',(0.0,0.0,1.0));
#110=DIRECTION('',(1.0,0.0,0.0));
#111=AXIS2_PLACEMENT_3D('',#108,#109,#110);
#112=CIRCLE('',#111,0.055000000000000);
#113=EDGE_CURVE('',#107,#107,#112,.T.);
#114=ORIENTED_EDGE('',*,*,#113,.F.);
#115=EDGE_LOOP('',(#114));
#116=FACE_BOUND('',#115,.T.);
#117=ADVANCED_FACE('',(#105,#116),#102,.T.);
#118=CARTESIAN_POINT('',(0.0,0.0,0.167475000000000));
#119=DIRECTION('',(0.0,0.0,-1.0));
#120=DIRECTION('',(-1.0,0.0,0.0));
#121=AXIS2_PLACEMENT_3D('',#118,#119,#120);
#122=CONICAL_SURFACE('',#121,0.067525000000000,45.000000000000007);
#123=CARTESIAN_POINT('',(0.080050000000000,-5.589865E-016,0.154950000000000));
#124=VERTEX_POINT('',#123);
#125=CARTESIAN_POINT('',(0.0,0.0,0.154950000000000));
#126=DIRECTION('',(0.0,0.0,1.0));
#127=DIRECTION('',(-1.0,0.0,0.0));
#128=AXIS2_PLACEMENT_3D('',#125,#126,#127);
#129=CIRCLE('',#128,0.080050000000000);
#130=EDGE_CURVE('',#124,#124,#129,.T.);
#131=ORIENTED_EDGE('',*,*,#130,.T.);
#132=EDGE_LOOP('',(#131));
#133=FACE_OUTER_BOUND('',#132,.T.);
#134=CARTESIAN_POINT('',(0.055000000000000,-3.840632E-016,0.180000000000000));
#135=VERTEX_POINT('',#134);
#136=CARTESIAN_POINT('',(0.0,0.0,0.180000000000000));
#137=DIRECTION('',(0.0,0.0,1.0));
#138=DIRECTION('',(1.0,0.0,0.0));
#139=AXIS2_PLACEMENT_3D('',#136,#137,#138);
#140=CIRCLE('',#139,0.055000000000000);
#141=EDGE_CURVE('',#135,#135,#140,.T.);
#142=ORIENTED_EDGE('',*,*,#141,.F.);
#143=EDGE_LOOP('',(#142));
#144=FACE_BOUND('',#143,.T.);
#145=ADVANCED_FACE('',(#133,#144),#122,.T.);
#146=CARTESIAN_POINT('',(0.0,0.0,0.090000000000000));
#147=DIRECTION('',(0.0,0.0,1.0));
#148=DIRECTION('',(1.0,0.0,0.0));
#149=AXIS2_PLACEMENT_3D('',#146,#147,#148);
#150=CYLINDRICAL_SURFACE('',#149,0.080050000000000);
#151=CARTESIAN_POINT('',(0.080050000000000,5.589865E-016,0.025050000000000));
#152=VERTEX_POINT('',#151);
#153=CARTESIAN_POINT('',(0.0,0.0,0.025050000000000));
#154=DIRECTION('',(0.0,0.0,-1.0));
#155=DIRECTION('',(-1.0,0.0,0.0));
#156=AXIS2_PLACEMENT_3D('',#153,#154,#155);
#157=CIRCLE('',#156,0.080050000000000);
#158=EDGE_CURVE('',#152,#152,#157,.T.);
#159=ORIENTED_EDGE('',*,*,#158,.F.);
#160=EDGE_LOOP('',(#159));
#161=FACE_OUTER_BOUND('',#160,.T.);
#162=ORIENTED_EDGE('',*,*,#130,.F.);
#163=EDGE_LOOP('',(#162));
#164=FACE_BOUND('',#163,.T.);
#165=ADVANCED_FACE('',(#161,#164),#150,.T.);
#166=CARTESIAN_POINT('',(0.0,0.0,0.012525000000000));
#167=DIRECTION('',(0.0,0.0,1.0));
#168=DIRECTION('',(-1.0,0.0,0.0));
#169=AXIS2_PLACEMENT_3D('',#166,#167,#168);
#170=CONICAL_SURFACE('',#169,0.067525000000000,45.000000000000007);
#171=ORIENTED_EDGE('',*,*,#158,.T.);
#172=EDGE_LOOP('',(#171));
#173=FACE_OUTER_BOUND('',#172,.T.);
#174=CARTESIAN_POINT('',(0.055000000000000,0.0,0.0));
#175=VERTEX_POINT('',#174);
#176=CARTESIAN_POINT('',(0.0,0.0,0.0));
#177=DIRECTION('',(0.0,0.0,-1.0));
#178=DIRECTION('',(1.0,0.0,0.0));
#179=AXIS2_PLACEMENT_3D('',#176,#177,#178);
#180=CIRCLE('',#179,0.055000000000000);
#181=EDGE_CURVE('',#175,#175,#180,.T.);
#182=ORIENTED_EDGE('',*,*,#181,.F.);
#183=EDGE_LOOP('',(#182));
#184=FACE_BOUND('',#183,.T.);
#185=ADVANCED_FACE('',(#173,#184),#170,.T.);
#186=CARTESIAN_POINT('',(0.0,0.0,0.200000000000000));
#187=DIRECTION('',(0.0,0.0,1.0));
#188=DIRECTION('',(1.0,0.0,0.0));
#189=AXIS2_PLACEMENT_3D('',#186,#187,#188);
#190=CYLINDRICAL_SURFACE('',#189,0.055000000000000);
#191=ORIENTED_EDGE('',*,*,#73,.T.);
#192=EDGE_LOOP('',(#191));
#193=FACE_OUTER_BOUND('',#192,.T.);
#194=ORIENTED_EDGE('',*,*,#141,.T.);
#195=EDGE_LOOP('',(#194));
#196=FACE_BOUND('',#195,.T.);
#197=ADVANCED_FACE('',(#193,#196),#190,.T.);
#198=CARTESIAN_POINT('',(0.0,0.0,0.0));
#199=DIRECTION('',(0.0,0.0,-1.0));
#200=DIRECTION('',(-1.0,0.0,0.0));
#201=AXIS2_PLACEMENT_3D('',#198,#199,#200);
#202=PLANE('',#201);
#203=ORIENTED_EDGE('',*,*,#181,.T.);
#204=EDGE_LOOP('',(#203));
#205=FACE_OUTER_BOUND('',#204,.T.);
#206=ADVANCED_FACE('',(#205),#202,.T.);
#207=CARTESIAN_POINT('',(0.0,0.0,0.400000000000000));
#208=DIRECTION('',(0.0,0.0,1.0));
#209=DIRECTION('',(1.0,0.0,0.0));
#210=AXIS2_PLACEMENT_3D('',#207,#208,#209);
#211=PLANE('',#210);
#212=ORIENTED_EDGE('',*,*,#113,.T.);
#213=EDGE_LOOP('',(#212));
#214=FACE_OUTER_BOUND('',#213,.T.);
#215=ADVANCED_FACE('',(#214),#211,.T.);
#216=CLOSED_SHELL('',(#77,#97,#117,#145,#165,#185,#197,#206,#215));
#217=MANIFOLD_SOLID_BREP('',#216);
#218=COLOUR_RGB('Default',0.752941012382507,0.752941012382507,0.752941012382507);
#219=FILL_AREA_STYLE_COLOUR('Default',#218);
#220=FILL_AREA_STYLE('Default',(#219));
#221=SURFACE_STYLE_FILL_AREA(#220);
#222=SURFACE_SIDE_STYLE('Default',(#221));
#223=SURFACE_STYLE_USAGE(.BOTH.,#222);
#224=PRESENTATION_STYLE_ASSIGNMENT((#223));
#225=STYLED_ITEM('',(#224),#217);
#226=MECHANICAL_DESIGN_GEOMETRIC_PRESENTATION_REPRESENTATION('',(#225),#42);
#227=ADVANCED_BREP_SHAPE_REPRESENTATION('ABSR',(#217),#42);
#228=SHAPE_REPRESENTATION_RELATIONSHIP('SRR','None',#227,#47);
ENDSEC;
END-ISO-10303-21;
