ISO-10303-21;
HEADER;
/****************************************************************
 * Generated by software with PDE/Lib inside                    *
 * PDElib Version v51a, created Tue 12/06/2005                  *
 * International Technegroup Inc. (www.iti-oh.com)              *
 ****************************************************************/
FILE_DESCRIPTION((''),'2;1');
FILE_NAME('\\\\Lanstorage1\\temp3d\\m6tq20.stp','2009-04-28T13:30:17',('JC'),(''),'Autodesk Inventor 11','Autodesk Inventor 11','');
FILE_SCHEMA(('AUTOMOTIVE_DESIGN { 1 0 10303 214 1 1 1 1 }'));
ENDSEC;
DATA;
#5=APPLICATION_CONTEXT('automotive design');
#6=APPLICATION_PROTOCOL_DEFINITION('Draft International Standard','automotive_design',1998,#5);
#7=PRODUCT_CONTEXT('None',#5,'mechanical');
#8=PRODUCT('m6tq201','m6tq201','None',(#7));
#9=PRODUCT_RELATED_PRODUCT_CATEGORY('part','description',(#8));
#10=PRODUCT_DEFINITION_FORMATION('None','None',#8);
#11=PRODUCT_DEFINITION_CONTEXT('part definition',#5,'design');
#12=PRODUCT_DEFINITION('None','None',#10,#11);
#18=(NAMED_UNIT(*)PLANE_ANGLE_UNIT()SI_UNIT($,.RADIAN.));
#19=DIMENSIONAL_EXPONENTS(0.0,0.0,0.0,0.0,0.0,0.0,0.0);
#20=PLANE_ANGLE_MEASURE_WITH_UNIT(PLANE_ANGLE_MEASURE(0.017453292500000),#18);
#24=(CONVERSION_BASED_UNIT('DEGREE',#20)NAMED_UNIT(#19)PLANE_ANGLE_UNIT());
#28=(NAMED_UNIT(*)SI_UNIT($,.STERADIAN.)SOLID_ANGLE_UNIT());
#32=(LENGTH_UNIT()NAMED_UNIT(*)SI_UNIT(.CENTI.,.METRE.));
#33=DIMENSIONAL_EXPONENTS(1.0,0.0,0.0,0.0,0.0,0.0,0.0);
#34=LENGTH_MEASURE_WITH_UNIT(LENGTH_MEASURE(2.540000000000000),#32);
#38=(CONVERSION_BASED_UNIT('INCH',#34)LENGTH_UNIT()NAMED_UNIT(#33));
#40=UNCERTAINTY_MEASURE_WITH_UNIT(LENGTH_MEASURE(0.000393700787402),#38,'DISTANCE_ACCURACY_VALUE','');
#42=(GEOMETRIC_REPRESENTATION_CONTEXT(3)GLOBAL_UNCERTAINTY_ASSIGNED_CONTEXT((#40))GLOBAL_UNIT_ASSIGNED_CONTEXT((#24,#28,#38))REPRESENTATION_CONTEXT('None','None'));
#43=AXIS2_PLACEMENT_3D('',#44,#45,#46);
#44=CARTESIAN_POINT('',(0.0,0.0,0.0));
#45=DIRECTION('',(0.0,0.0,1.0));
#46=DIRECTION('',(1.0,0.0,0.0));
#47=SHAPE_REPRESENTATION('',(#43),#42);
#48=PRODUCT_DEFINITION_SHAPE('','',#12);
#49=SHAPE_DEFINITION_REPRESENTATION(#48,#47);
#50=CARTESIAN_POINT('',(0.042500000000000,0.0,0.467575000000000));
#51=DIRECTION('',(0.0,0.0,1.0));
#52=DIRECTION('',(1.0,0.0,0.0));
#53=AXIS2_PLACEMENT_3D('',#50,#51,#52);
#54=PLANE('',#53);
#55=CARTESIAN_POINT('',(0.085000000000000,0.0,0.467575000000000));
#56=VERTEX_POINT('',#55);
#57=CARTESIAN_POINT('',(5.551115E-017,0.0,0.467575000000000));
#58=DIRECTION('',(0.0,0.0,-1.0));
#59=DIRECTION('',(1.0,0.0,0.0));
#60=AXIS2_PLACEMENT_3D('',#57,#58,#59);
#61=CIRCLE('',#60,0.085000000000000);
#62=EDGE_CURVE('',#56,#56,#61,.T.);
#63=ORIENTED_EDGE('',*,*,#62,.F.);
#64=EDGE_LOOP('',(#63));
#65=FACE_OUTER_BOUND('',#64,.T.);
#66=ADVANCED_FACE('',(#65),#54,.T.);
#67=CARTESIAN_POINT('',(5.551115E-017,0.0,0.452162500000000));
#68=DIRECTION('',(-1.110223E-016,0.0,-1.0));
#69=DIRECTION('',(1.0,0.0,0.0));
#70=AXIS2_PLACEMENT_3D('',#67,#68,#69);
#71=CONICAL_SURFACE('',#70,0.100412500000000,44.999999999999901);
#72=CARTESIAN_POINT('',(0.115825000000000,0.0,0.436750000000000));
#73=VERTEX_POINT('',#72);
#74=CARTESIAN_POINT('',(5.551115E-017,0.0,0.436750000000000));
#75=DIRECTION('',(0.0,0.0,-1.0));
#76=DIRECTION('',(1.0,0.0,0.0));
#77=AXIS2_PLACEMENT_3D('',#74,#75,#76);
#78=CIRCLE('',#77,0.115825000000000);
#79=EDGE_CURVE('',#73,#73,#78,.T.);
#80=ORIENTED_EDGE('',*,*,#79,.F.);
#81=EDGE_LOOP('',(#80));
#82=FACE_OUTER_BOUND('',#81,.T.);
#83=ORIENTED_EDGE('',*,*,#62,.T.);
#84=EDGE_LOOP('',(#83));
#85=FACE_BOUND('',#84,.T.);
#86=ADVANCED_FACE('',(#82,#85),#71,.T.);
#87=CARTESIAN_POINT('',(5.551115E-017,0.0,0.362575000000000));
#88=DIRECTION('',(-1.110223E-016,0.0,-1.0));
#89=DIRECTION('',(1.0,0.0,0.0));
#90=AXIS2_PLACEMENT_3D('',#87,#88,#89);
#91=CYLINDRICAL_SURFACE('',#90,0.115825000000000);
#92=CARTESIAN_POINT('',(0.115825000000000,0.0,0.288400000000000));
#93=VERTEX_POINT('',#92);
#94=CARTESIAN_POINT('',(5.551115E-017,0.0,0.288400000000000));
#95=DIRECTION('',(0.0,0.0,-1.0));
#96=DIRECTION('',(1.0,0.0,0.0));
#97=AXIS2_PLACEMENT_3D('',#94,#95,#96);
#98=CIRCLE('',#97,0.115825000000000);
#99=EDGE_CURVE('',#93,#93,#98,.T.);
#100=ORIENTED_EDGE('',*,*,#99,.F.);
#101=EDGE_LOOP('',(#100));
#102=FACE_OUTER_BOUND('',#101,.T.);
#103=ORIENTED_EDGE('',*,*,#79,.T.);
#104=EDGE_LOOP('',(#103));
#105=FACE_BOUND('',#104,.T.);
#106=ADVANCED_FACE('',(#102,#105),#91,.T.);
#107=CARTESIAN_POINT('',(5.551115E-017,0.0,0.272987500000000));
#108=DIRECTION('',(1.110223E-016,0.0,1.0));
#109=DIRECTION('',(1.0,0.0,0.0));
#110=AXIS2_PLACEMENT_3D('',#107,#108,#109);
#111=CONICAL_SURFACE('',#110,0.100412500000000,44.999999999999893);
#112=CARTESIAN_POINT('',(0.085000000000000,0.0,0.257575000000000));
#113=VERTEX_POINT('',#112);
#114=CARTESIAN_POINT('',(5.551115E-017,0.0,0.257575000000000));
#115=DIRECTION('',(0.0,0.0,-1.0));
#116=DIRECTION('',(1.0,0.0,0.0));
#117=AXIS2_PLACEMENT_3D('',#114,#115,#116);
#118=CIRCLE('',#117,0.085000000000000);
#119=EDGE_CURVE('',#113,#113,#118,.T.);
#120=ORIENTED_EDGE('',*,*,#119,.F.);
#121=EDGE_LOOP('',(#120));
#122=FACE_OUTER_BOUND('',#121,.T.);
#123=ORIENTED_EDGE('',*,*,#99,.T.);
#124=EDGE_LOOP('',(#123));
#125=FACE_BOUND('',#124,.T.);
#126=ADVANCED_FACE('',(#122,#125),#111,.T.);
#127=CARTESIAN_POINT('',(0.0,0.0,0.237575000000000));
#128=DIRECTION('',(-1.110223E-016,0.0,-1.0));
#129=DIRECTION('',(1.0,0.0,0.0));
#130=AXIS2_PLACEMENT_3D('',#127,#128,#129);
#131=CYLINDRICAL_SURFACE('',#130,0.085000000000000);
#132=CARTESIAN_POINT('',(0.085000000000000,0.0,0.217575000000000));
#133=VERTEX_POINT('',#132);
#134=CARTESIAN_POINT('',(0.0,0.0,0.217575000000000));
#135=DIRECTION('',(0.0,0.0,-1.0));
#136=DIRECTION('',(1.0,0.0,0.0));
#137=AXIS2_PLACEMENT_3D('',#134,#135,#136);
#138=CIRCLE('',#137,0.085000000000000);
#139=EDGE_CURVE('',#133,#133,#138,.T.);
#140=ORIENTED_EDGE('',*,*,#139,.F.);
#141=EDGE_LOOP('',(#140));
#142=FACE_OUTER_BOUND('',#141,.T.);
#143=ORIENTED_EDGE('',*,*,#119,.T.);
#144=EDGE_LOOP('',(#143));
#145=FACE_BOUND('',#144,.T.);
#146=ADVANCED_FACE('',(#142,#145),#131,.T.);
#147=CARTESIAN_POINT('',(0.0,0.0,0.198862500000000));
#148=DIRECTION('',(-1.110223E-016,0.0,-1.0));
#149=DIRECTION('',(1.0,0.0,0.0));
#150=AXIS2_PLACEMENT_3D('',#147,#148,#149);
#151=CONICAL_SURFACE('',#150,0.103712500000000,44.999999999999950);
#152=CARTESIAN_POINT('',(0.122425000000000,0.0,0.180150000000000));
#153=VERTEX_POINT('',#152);
#154=CARTESIAN_POINT('',(0.0,0.0,0.180150000000000));
#155=DIRECTION('',(0.0,0.0,-1.0));
#156=DIRECTION('',(1.0,0.0,0.0));
#157=AXIS2_PLACEMENT_3D('',#154,#155,#156);
#158=CIRCLE('',#157,0.122425000000000);
#159=EDGE_CURVE('',#153,#153,#158,.T.);
#160=ORIENTED_EDGE('',*,*,#159,.F.);
#161=EDGE_LOOP('',(#160));
#162=FACE_OUTER_BOUND('',#161,.T.);
#163=ORIENTED_EDGE('',*,*,#139,.T.);
#164=EDGE_LOOP('',(#163));
#165=FACE_BOUND('',#164,.T.);
#166=ADVANCED_FACE('',(#162,#165),#151,.T.);
#167=CARTESIAN_POINT('',(0.0,0.0,0.090075000000000));
#168=DIRECTION('',(-1.110223E-016,0.0,-1.0));
#169=DIRECTION('',(1.0,0.0,0.0));
#170=AXIS2_PLACEMENT_3D('',#167,#168,#169);
#171=CYLINDRICAL_SURFACE('',#170,0.122425000000000);
#172=CARTESIAN_POINT('',(0.122425000000000,0.0,-1.387779E-017));
#173=VERTEX_POINT('',#172);
#174=CARTESIAN_POINT('',(0.0,0.0,0.0));
#175=DIRECTION('',(0.0,0.0,-1.0));
#176=DIRECTION('',(1.0,0.0,0.0));
#177=AXIS2_PLACEMENT_3D('',#174,#175,#176);
#178=CIRCLE('',#177,0.122425000000000);
#179=EDGE_CURVE('',#173,#173,#178,.T.);
#180=ORIENTED_EDGE('',*,*,#179,.F.);
#181=EDGE_LOOP('',(#180));
#182=FACE_OUTER_BOUND('',#181,.T.);
#183=ORIENTED_EDGE('',*,*,#159,.T.);
#184=EDGE_LOOP('',(#183));
#185=FACE_BOUND('',#184,.T.);
#186=ADVANCED_FACE('',(#182,#185),#171,.T.);
#187=CARTESIAN_POINT('',(0.0,0.0,-0.016212500000000));
#188=DIRECTION('',(1.110223E-016,0.0,1.0));
#189=DIRECTION('',(1.0,0.0,0.0));
#190=AXIS2_PLACEMENT_3D('',#187,#188,#189);
#191=CONICAL_SURFACE('',#190,0.106212500000000,45.000000000000007);
#192=CARTESIAN_POINT('',(0.090000000000000,0.0,-0.032425000000000));
#193=VERTEX_POINT('',#192);
#194=CARTESIAN_POINT('',(0.0,0.0,-0.032425000000000));
#195=DIRECTION('',(0.0,0.0,-1.0));
#196=DIRECTION('',(1.0,0.0,0.0));
#197=AXIS2_PLACEMENT_3D('',#194,#195,#196);
#198=CIRCLE('',#197,0.090000000000000);
#199=EDGE_CURVE('',#193,#193,#198,.T.);
#200=ORIENTED_EDGE('',*,*,#199,.F.);
#201=EDGE_LOOP('',(#200));
#202=FACE_OUTER_BOUND('',#201,.T.);
#203=ORIENTED_EDGE('',*,*,#179,.T.);
#204=EDGE_LOOP('',(#203));
#205=FACE_BOUND('',#204,.T.);
#206=ADVANCED_FACE('',(#202,#205),#191,.T.);
#207=CARTESIAN_POINT('',(0.045000000000000,0.0,-0.032425000000000));
#208=DIRECTION('',(0.0,0.0,-1.0));
#209=DIRECTION('',(-1.0,0.0,0.0));
#210=AXIS2_PLACEMENT_3D('',#207,#208,#209);
#211=PLANE('',#210);
#212=ORIENTED_EDGE('',*,*,#199,.T.);
#213=EDGE_LOOP('',(#212));
#214=FACE_OUTER_BOUND('',#213,.T.);
#215=ADVANCED_FACE('',(#214),#211,.T.);
#216=CLOSED_SHELL('',(#66,#86,#106,#126,#146,#166,#186,#206,#215));
#217=MANIFOLD_SOLID_BREP('',#216);
#218=COLOUR_RGB('Default',0.752941012382507,0.752941012382507,0.752941012382507);
#219=FILL_AREA_STYLE_COLOUR('Default',#218);
#220=FILL_AREA_STYLE('Default',(#219));
#221=SURFACE_STYLE_FILL_AREA(#220);
#222=SURFACE_SIDE_STYLE('Default',(#221));
#223=SURFACE_STYLE_USAGE(.BOTH.,#222);
#224=PRESENTATION_STYLE_ASSIGNMENT((#223));
#225=STYLED_ITEM('',(#224),#217);
#226=MECHANICAL_DESIGN_GEOMETRIC_PRESENTATION_REPRESENTATION('',(#225),#42);
#227=ADVANCED_BREP_SHAPE_REPRESENTATION('ABSR',(#217),#42);
#228=SHAPE_REPRESENTATION_RELATIONSHIP('SRR','None',#227,#47);
ENDSEC;
END-ISO-10303-21;
